Cifra Club

Miente

Bengala

Cifra: Principal (violão e guitarra)
tom: Em
Intro Bm B5

Riff 1                     riff 2
E|---------0-------------|-------------2-----|
B|------2-----0----------|---------------0---|
G|----4---------4--------|--4---2----------0-|
D|--4--------------------|---------4---------|
A|-----------------------|-------------------|
E|-----------------------|-------------------|
   riff 3          riff 4
E|---------0-----|----0---0---0-|
B|-----------0---|--3---3---3---|
G|------4------4-|--------------|
D|----4----------|--------------|
A|--2------------|--------------|
E|---------------|--------------|


Ella me miro
kon los ojos mudos
me miro
a siglos de distancia

riff 1           riff 2
miente por favor
          riff 1
con destreza dijiste

sin valor
     riff 2             riff 3
que no me necesitas mas

coro:

G                         F#m
mientete aunque sea un momento
          G                    F#m
que si no te puedo ver es por que no he buscado bien
G                         F#m
mientete qunque sea un momento
         G                        F#m
que si no he buscado bien es por que no te quiero ver


Bm B5

             Riff 2
Ella me miro

con los ojos
riff 2
rotos se alejo
    riff 2
a siglos de distancia en un avion
riff 4
y me quede
riff 4
sin hablar
riff 4
y me quede
        Bm B5
sin hablar

Coro:

G                         F#m
mientete aunque sea un momento
          G                    F#m
que si no te puedo ver es por que no he buscado bien
G                         F#m
mientete qunque sea un momento
         G                        F#m
que si no he buscado bien es por que no te quiero ver



Bm B5
Composição de Bengala
2 exibições
    • ½ Tom
    • Am
    • Bbm
    • Bm
    • Cm
    • C#m
    • Dm
    • Ebm
    • Em
    • Fm
    • F#m
    • Gm
    • G#m
  • Adicionar à lista

    0 comentários

    Ver todos os comentários

    Conseguiu tocar?

    0 Tocaram 0 Ainda não

    Grave um vídeo tocando Miente e nos envie!

    00:00 / 00:00
    Outros vídeos desta música
    Repetir Qualidade Automático
    Outros vídeos desta música
    00:00 / 00:00
    Automático

    Cifra Club Pro

    Aproveite o Cifra Club com benefícios exclusivos e sem anúncios
    Cifra Club Pro
    Aproveite o Cifra Club com benefícios exclusivos e sem anúncios
    OK