Cifra Club

Otra Vez

Bengala

Cifra: Principal (violão e guitarra)
tom: Gm
Cm
E|---------------------|
B|------------4--------|
G|--8/7--8/7-----------|
D|---------------------| X3
A|---------------------|
E|---------------------|

Cm                    F                 Cm                    F 
E|---------------------------------------------------------------------------|
B|----------6----------6----------------4-----------4----------6-------------|
G|-8/7-8/7-----5/7-5/7---------5/7-5/7------8/7-8/7----8/7-8/7---------------|
D|---------------------------------------------------------------------------|
A|---------------------------------------------------------------------------|
E|---------------------------------------------------------------------------|

Cm               F 
Hay cosas que quisiera no decir
Gm                        Cm
Ideas que es mejor no compartir
Cm                      F 
Deseos que preferiría esconder
Gm                      Cm
Yo te quiero sin entender por que


Cm   Eb      F          Cm       Eb       F 
Otra vez dejaré que te vayas y no te diré nada
Cm   Eb      F          Cm       Eb       F 
Otra vez dejaré que te vayas y no te diré nada

(Cm Eb F ) X2

Cm                         F 
Tal vez tú no comprenderás jamás
Gm                       Cm
Tampoco sé si me interesa ya
Cm                              F 
Lo que sí sé es que un día tú volverás
Gm                          Cm
Cuando el frío te haga regresar

Cm    Eb     F          Cm        Eb       F 
Otra vez dejaré que te vayas y no te diré nada
Cm    Eb     F           Cm       Eb        F 
Otra vez dejaré que te vayas y no te diré nada

 (Cm Eb F ) X4

Otra vez
Otra vez
Otra vez
Otra vez
Compositor não encontrado.
    • ½ Tom
    • Am
    • Bbm
    • Bm
    • Cm
    • C#m
    • Dm
    • Ebm
    • Em
    • Fm
    • F#m
    • Gm
    • G#m
  • Adicionar à lista

    0 comentários

    Ver todos os comentários

    Conseguiu tocar?

    0 Tocaram 0 Ainda não

    Grave um vídeo tocando Otra Vez e nos envie!

    00:00 / 00:00
    Outros vídeos desta música
    Repetir Qualidade Automático
    Outros vídeos desta música
    00:00 / 00:00
    Automático

    Cifra Club Pro

    Aproveite o Cifra Club com benefícios exclusivos e sem anúncios
    Cifra Club Pro
    Aproveite o Cifra Club com benefícios exclusivos e sem anúncios
    OK