Cifra Club

Planeador

Bengala

Cifra: Principal (violão e guitarra)
tom: C#m
Intro: C#m

Riff 1
E|---------------------------------------7-----|
B|--6------6--------6--------7----10--7----7---|
G|----6-4----6-4------6-4------7---------------| x2
D|---------------------------------------------|
A|---------------------------------------------|
E|---------------------------------------------|

 B                              C#m
Estrellas de mar vienen y se van
   B                                  C#m
Aire sabor sal dulsura calma mi anciedad
     B                                     C#m
Luces al final se encienden las puedes mirar
        B                   C#m
Pienso en regresar con vida a casa y mi


 Coro:

     F#m              C#m           B    E
Planeadoooooooooooooooooooor se estrella
     F#m              C#m           B
Planeadoooooooooooooooooooor se estrella

Riff 1
E|---------------------------------------7-----|
B|--6------6--------6--------7----10--7----7---|
G|----6-4----6-4------6-4------7---------------| x2
D|---------------------------------------------|
A|---------------------------------------------|
E|---------------------------------------------|


B                              C#m
Estrellas de mar vienen y se van
   B                                  C#m
Aire sabor sal dulsura calma mi anciedad
     B                                     C#m
Luces al final se encienden las puedes mirar
        B                   C#m
Pienso en regresar con vida a casa y mi


Coro 2:

     F#m              C#m           B    E
Planeadoooooooooooooooooooor se estrella
     F#m              C#m           B    E
Planeadoooooooooooooooooooor se estrella
     F#m              C#m           D      B
Planeadoooooooooooooooooooor se estrella se estrella
Composição de Bengala
    • ½ Tom
    • Am
    • Bbm
    • Bm
    • Cm
    • C#m
    • Dm
    • Ebm
    • Em
    • Fm
    • F#m
    • Gm
    • G#m
  • Adicionar à lista

    0 comentários

    Ver todos os comentários

    Conseguiu tocar?

    0 Tocaram 0 Ainda não

    Grave um vídeo tocando Planeador e nos envie!

    00:00 / 00:00
    Outros vídeos desta música
    Repetir Qualidade Automático
    Outros vídeos desta música
    00:00 / 00:00
    Automático

    Cifra Club Pro

    Aproveite o Cifra Club com benefícios exclusivos e sem anúncios
    Cifra Club Pro
    Aproveite o Cifra Club com benefícios exclusivos e sem anúncios
    OK