Cifra Club

Pulso

Bengala

Cifra: Principal (violão e guitarra)
tom: Bm
G|--------|--------|---------|--------|--------|--------|--------|-|
D|--------|--------|---------|--------|--------|--------|--------|-|
A|--------|--------|---------|--------|-5-(x8)-|-3-(x8)-|-2-(x8)-|-|
E|-5-(x8)-|-7-(x8)-|-3-(x12)-|-2-(x8)-|--------|--------|--------|-|

riff 1:1ra Guitarra

E|----------------------------|
B|----------------------------|
G|----------------------------|
D|-7---7-7--9-10---4-4-5-5-7--|
A|-7---7-7--9-10---4-4-5-5-7--|
E|-5---5-5--7-8----2-2-3-3-5--| x2

riff 2:1ra guitarra

E|---------------------------------------------|
B|---------------------------------------------|
G|-7h9h7--7~-5-7-7h8-5-7-7h8-5-7-5-7-5-5-7-5---|
D|-------------------------------------------7-|
A|---------------------------------------------|
E|---------------------------------------------|

otra ves el riff 1 dos veces
y el riff 2 una vez

riff 1:2da guitarra

E|-5-5---7-8-----2-2-3-3-5-|
B|-5-5---7-8-----2-2-3-3-5-|
G|-------------------------|
D|-------------------------|
A|-------------------------|
E|-------------------------| x2

riff 2:2da Guitarra

E|-------------------------------|
B|-------------------------------|
G|-------------------------------|
D|--7------6------9-------7------|
A|--7------6------9-------7------|
E|--5-(x8)-4-(x8)-7-(x8)-5-(x8)--|

luego otra vez el riff 1 dos veces y despues
el riff 2 una vez.

paran las 2 guitarras y el bajo toca lo del
principio:


un largo camino...    bajo la marea...
G|--------|--------|---------|--------|--------|--------|--------|
D|--------|--------|---------|--------|--------|--------|--------|
A|--------|--------|---------|--------|-5-(x8)-|-3-(x8)-|-2-(x8)-|
E|-5-(x8)-|-7-(x8)-|-3-(x12)-|-2-(x8)-|--------|--------|--------| x2



luego entran las liras:

coro:

1ra guitarra:

No se si estoy muerto,
pero no me puedo ver, ahhh
un vago recuerdo
de lo que fue alguna

E|-------------------------------|
B|-------------------------------|
G|-------------------------------|
D|--7------6------9-------7------|
A|--7------6------9-------7------|
E|--5-(x8)-4-(x8)-7-(x16)-5-(x8)-| x 4

2da guitarra:
E|--------------------------------|
B|-10-(x8)-9-(x8)-12-(x8)-10-(x8)-|
G|--------------------------------|
D|--------------------------------|
A|--------------------------------|
E|--------------------------------| x4

se toca otra vez el intro pero solo una vez.

riff 1:1ra Guitarra

E|----------------------------|
B|----------------------------|
G|----------------------------|
D|-7---7-7--9-10---4-4-5-5-7--|
A|-7---7-7--9-10---4-4-5-5-7--|
E|-5---5-5--7-8----2-2-3-3-5--| x2

riff 2:1ra guitarra

E|---------------------------------------------|
B|---------------------------------------------|
G|-7h9h7--7~-5-7-7h8-5-7-7h8-5-7-5-7-5-5-7-5---|
D|-------------------------------------------7-|
A|---------------------------------------------|
E|---------------------------------------------|

riff 1:2da guitarra

E|-5-5---7-8-----2-2-3-3-5-|
B|-5-5---7-8-----2-2-3-3-5-|
G|-------------------------|
D|-------------------------|
A|-------------------------|
E|-------------------------| x2

riff 2:2da Guitarra

E|-------------------------------|
B|-------------------------------|
G|-------------------------------|
D|--7------6------9-------7------|
A|--7------6------9-------7------|
E|--5-(x8)-4-(x8)-7-(x8)-5-(x8)--|

otra vez el bajo 2 veces.

sostenme la mano...   de pronto el aire es denso...
G|--------|--------|---------|--------|--------|--------|--------|-|
D|--------|--------|---------|--------|--------|--------|--------|-|
A|--------|--------|---------|--------|-5-(x8)-|-3-(x8)-|-2-(x8)-|-|
E|-5-(x8)-|-7-(x8)-|-3-(x12)-|-2-(x8)-|--------|--------|--------|-| x2

y entra al coro que es lo mismo.

y ahora sigue el solo:
mientras estan tocando el solo la 1ra guitarra toca esto:

E|-------------------------------|
B|-------------------------------|
G|-------------------------------|
D|--7------6------9-------7------|
A|--7------6------9-------7------|
E|--5-(x8)-4-(x8)-7-(x8)-5-(x8)--|

solo:

E|--------------------------------------------------------------------|
B|-10-12-10-12s13--12-10-12-10-12s13-12-10-12-10-12-10-12-10-12s13-12-|
G|--------------------------------------------------------------------|
D|--------------------------------------------------------------------|
A|--------------------------------------------------------------------|
E|--------------------------------------------------------------------|

E|----------------------------------------12-12----------12-12-12p10----|
B|-10-12-10-12s13-12-10-12-10-12-10-12-10-------10-12-10-------------12-|
G|----------------------------------------------------------------------|
D|----------------------------------------------------------------------|
A|----------------------------------------------------------------------|
E|----------------------------------------------------------------------|

se repite esto 3 veces y al terminar el solo
la otra guitarra hace esto:

E|-------------------------------|
B|-------------------------------|
G|-------------------------------|
D|--7------6------9-------7------|
A|--7------6------9-------7------|
E|--5-(x8)-4-(x8)-7-(x8)-5-(x8)--| x2

luego va otra vez el coro:

E|-------------------------------|
B|-------------------------------|
G|-------------------------------|
D|--7------6------9-------7------|
A|--7------6------9-------7------|
E|--5-(x8)-4-(x8)-7-(x16)-5-(x8)-| x6

2da guitarra:
E|--------------------------------|
B|-10-(x8)-9-(x8)-12-(x8)-10-(x8)-|
G|--------------------------------|
D|--------------------------------|
A|--------------------------------|
E|--------------------------------| x6


ya bueno pues esta es toda la rola el solo no
esta perfecto pero espero que les guste
saludos a toda la banda Los Cuervos
K-lusha:guitarra/voz
Aldo:bajo
Ivan:bateria/coros
y yo pues gitarra los quiero mucho a los de la banda
y a todos mis camaradas
para mas info:
Composição de Bengala
    • ½ Tom
    • Am
    • Bbm
    • Bm
    • Cm
    • C#m
    • Dm
    • Ebm
    • Em
    • Fm
    • F#m
    • Gm
    • G#m
  • Adicionar à lista

    0 comentários

    Ver todos os comentários

    Conseguiu tocar?

    0 Tocaram 0 Ainda não

    Grave um vídeo tocando Pulso e nos envie!

    00:00 / 00:00
    Outros vídeos desta música
    Repetir Qualidade Automático
    Outros vídeos desta música
    00:00 / 00:00
    Automático

    Cifra Club Pro

    Aproveite o Cifra Club com benefícios exclusivos e sem anúncios
    Cifra Club Pro
    Aproveite o Cifra Club com benefícios exclusivos e sem anúncios
    OK