Cifra Club

Tírate

Bengala

Cifra: Principal (violão e guitarra)
tom: F#
INTRO:

Guitarra 1
E|---------0-----------------0-----------|
B|-----5-----5---5-------5-----5---5-----|
G|-------8-----8---8-------8-----8---8---|
D|---6----------------6------------------|
A|---------------------------------------|
E|---------------------------------------|

E|---------0-----------------0------------------0-------------|
B|-----5-----5---5-------5-----5---5/12---12------12----12----|
G|-------8-----8---8-------8-----8-----------13---------------|
D|---7----------------7-----------------13-----------13----13-|
A|------------------------------------------------------------|
E|------------------------------------------------------------|

E|------------0---------------------0---------------0---------|
B|------10-------10----10-------9-----9---9-----9-----9---9---|
G|---------11-------11----11------8-----8---8-----8-----8-----|
D|---10-----------------------9---------------9---------------|
A|------------------------------------------------------------|
E|------------------------------------------------------------|

Vueltas en el aire dijo..............
Guitarra 1
E|---------0-----------------0-----------|
B|-----5-----5---5-------5-----5---5-----|
G|-------8-----8---8-------8-----8---8---|
D|---6----------------6------------------|
A|---------------------------------------|
E|---------------------------------------|

E|---------0-----------------0------------------0-------------|
B|-----5-----5---5-------5-----5---5/12---12------12----12----|
G|-------8-----8---8-------8-----8-----------13---------------|
D|---7----------------7-----------------13-----------13----13-|
A|------------------------------------------------------------|
E|------------------------------------------------------------|

E|------------0---------------------0---------------0---------|
B|------10-------10----10-------9-----9---9-----9-----9---9---|
G|---------11-------11----11------8-----8---8-----8-----8-----|
D|---10-----------------------9---------------9---------------| todo X2
A|------------------------------------------------------------|
E|------------------------------------------------------------|

Es...momento
Guitarra 1
E|-------------------------------------------------|
B|---------9---------9-------------9---------9-----|
G|-------8----8----8---8---------8----8----8---8---|
D|---9-----------9-------9---10----------10------9-|
A|-------------------------------------------------|
E|-------------------------------------------------|

E|------------------------------------------------|
B|---------5---------5-------------4--------------|
G|-------8----8----8---8---------6----6-----------|
D|---7-----------7-------7---5----------6---------|
A|------------------------------------------------|
E|------------------------------------------------|

Giro alrededor unas pisadas...
La guitarra uno hace lo mismo que en el intro

Guitarra 2
     Giro alrededo veo unas pisadas en la arena...
E|------------------------------------------------|
B|---5-------------------------5------------7-----|
G|---6-------------------------6------------6-----|
D|---6-------------------------7------------7-----| *
A|------------------------------------------------| *
E|------------------------------------------------| *
                                                       *
     Voy...      sin rumbo    fijo                      * x2
E|-----------------------------------------------| *
B|---9-------------7-----------5-----------------| *
G|---9-------------8-----------6-----------------| *
D|---9-------------9-----------6-----------------| *
A|-----------------------------------------------|
E|-----------------------------------------------|

Nota:aqui se tocan las cuerdas seguido para  abajo
hasta que se escucha el cambio, de todas formas yo
especifique cuando se hace el cambio - por ejemplo,
el primer cambio se hace cuando va en la   palabra
pisadas mas o menos por la silaba (sa; de pi-sa-das),
fijense en la posición letra y abajo de que palabra esta.

 Tirate, tirame... (y eh) antes    que nos avienten
E|------------------2---------------4--------7-----|
B|------------------4---------------4--------7-----|
G|----6-------------4---------------4--------6-----| X2
D|----6-------------4---------------6--------7-----|
A|----4-------------2---------------6--------7-----|
E|----------------------------------4--------5-----|

Guitarra 1 (minuto 1:46)
E|-------------------------------------------------|
B|----9----9---------9-------------9---------9-----|
G|-------8----8----8---8---------8----8----8---8---|
D|---------------9-------9---10----------10------9-|
A|-------------------------------------------------|
E|-------------------------------------------------|

E|--------------------------------------------------------|
B|---------5---------5-------------4--------4-------4-----|
G|-------8----8----8---8---------6----6---6---6---6---6---|
D|---7-----------7-------7---5----------6------| 5-------6-
A|--------------------------------------------------------|
E|--------------------------------------------------------|

Cras destrozadas por las gansa..
La guitarra uno hace lo mismo que en el intro
Guitarra 2
(la guitarra dos hace lo mismo que en "Giro alrededor.."
con los mismo tiempos y todo)

Tirate, tirame... (y eh) antes    que nos avienten      ohh!!!(min2:54)
E|------------------2---------------4--------7-----| e|---------
B|------------------4---------------4--------7-----| B|---------
G|----6-------------4---------------4--------6-----| X2 G|----6----
D|----6-------------4---------------6--------7-----| D|----6----
A|----4-------------2---------------6--------7-----| A|----4----
E|----------------------------------4--------5-----| E|---------

solo(toquen las cuerdas rapido para arriba y abajo,
     y hagan el cambio cuando se escuche)
Guitarra 1
E|---------------------| e|------------------------
B|---17------21---22---| B|---17------16---22---16-
G|----x-------x----x---| X3G|----x-------x----x----x-
D|---14------18---19---| D|---14------13---19---13-
A|---------------------| A|------------------------
E|---------------------| E|------------------------

Guitarra 2 en el solo( escuchen cuando se hace el cambio)
E|--------------------------------------------|
B|--------------------------------------------|
G|-4-4-4-4-4--6-6-6-6-6--7-7-7-7-7-7-7-7-7-7--|
D|-4-4-4-4-4--6-6-6-6-6--7-7-7-7-7-7-7-7-7-7--|
A|-2-2-2-2-2--4-4-4-4-4--5-5-5-5-5-5-5-5-5-5--|

Guitarra 1 (minuto 3:27)
E|-------------------------------------------------|
B|---------9---------9-------------9---------9-----|
G|-------8----8----8---8---------8----8----8---8---|
D|----9----------9-------9---10----------10------9-|
A|-------------------------------------------------|
E|-------------------------------------------------|

E|--------------------------------------------------------|
B|---------5---------5-------------4--------4-------4-----|
G|-------8----8----8---8---------6----6---6---6---6---6---|
D|---7-----------7-------7---5----------6------| 5-------6-
A|--------------------------------------------------------|
E|--------------------------------------------------------|

Se la dedico a la chilis,Al popi, al panque, al conan,
al cheko,al angel y a miis primos.etc
y a TOC S LO dE EL COLE 7
Composição de Bengala
    • ½ Tom
    • A
    • Bb
    • B
    • C
    • Db
    • D
    • Eb
    • E
    • F
    • F#
    • G
    • Ab
  • Adicionar à lista

    0 comentários

    Ver todos os comentários

    Conseguiu tocar?

    0 Tocaram 0 Ainda não

    Grave um vídeo tocando Tírate e nos envie!

    00:00 / 00:00
    Outros vídeos desta música
    Repetir Qualidade Automático
    Outros vídeos desta música
    00:00 / 00:00
    Automático

    Cifra Club Pro

    Aproveite o Cifra Club com benefícios exclusivos e sem anúncios
    Cifra Club Pro
    Aproveite o Cifra Club com benefícios exclusivos e sem anúncios
    OK