Cifra Club

Ego

Beyoncé

Cifra: Principal (violão e guitarra)
Selo Cifra Club: esta cifra foi revisada para atender aos critérios oficiais da nossa Equipe de Qualidade.
tom: Db
(intro)

E|-------------13--11--9------4--4-4--4--4---------------------|
B|--6--7--9---------------11--4--4-4--4--4---------------------|
G|--------------------------------5--6-6--6--6-----------------|
D|-------------------------------------------------------------|
A|--4--6--8--9-------------------------------------------------|
E|--------------------------------4--4-4--4--4-----------------|

E|-------------13--11--9------4--4-4--4--4---------------------|
B|--6--7--9---------------11--4--4-4--4--4---------------------|
G|--------------------------------5--6-6--6--6-------6---------|
D|-------------------------------------------------6-8---------|
A|--4--6--8--9-------------------------------------------------|
E|--------------------------------4--4-4--4--4-----------------|

E|-------------13--11--9------4--4-4--4--4---------------------|
B|--6--7--9---------------11--4--4-4--4--4---------------------|
G|--------------------------------5--6-6--6--6-------6---------|
D|-------------------------------------------------6-8---------|
A|--4--6--8--9-------------------------------------------------|
E|--------------------------------4--4-4--4--4-----------------|

E|-------------13--11--9------4--4-4--4--4---------------------|
B|--6--7--9---------------11--4--4-4--4--4---------------------|
G|--------------------------------5--6-6--6--6-------6---------|
D|-------------------------------------------------6-8---------|
A|--4--6--8--9-------------------------------------------------|

(fica nessa batida estilo o do piano da musica mesmo, igual as passagens  da intro)

    (G# G# G# G# G F# F# F# F# )
Oh baby, how you doing?
You know I'm gonna cut right to the chase
Some women were made but me, myself
I like to think that I was created for a special purpose
You know, what's more special than you? You feel me
It's on baby, let's get lost
You don't need to call into work 'cause you're the boss
For real, want you to show me how you feel
I consider myself lucky, that's a big deal
Why? Well, you got the key to my heart
But you ain't gonna need it, I'd rather you open up my body
And show me secrets, you didn't know was inside
No need for me to lie

C#             F#
It's too big, it's too wide
G#
It's too strong, it won't fit
C#             F#
It's too much, it's too tough
G#
He talk like this 'cause he can back it up

C#               F#           G#
He got a big ego, such a huge ego
               C#             F#
I love his big ego, it's too much
                G#                         G# Cm F#
He walk like this 'cause he can back it up

 (G# G# G# G# G F# F# F# F# )
Usually I'm humble, right now I don't choose
You can leave with me or you could have the blues
Some call it arrogant, I call it confident
You decide when you find on what I'm working with...
00:00 / 00:00
Outros vídeos desta música
Repetir
Outros vídeos desta música
39.946 exibições
    • ½ Tom
    • A
    • Bb
    • B
    • C
    • Db
    • D
    • Eb
    • E
    • F
    • F#
    • G
    • Ab
  • Adicionar à lista

Afinação da cifra

Afinador online

    0 comentários

    Ver todos os comentários

    Entre para o Cifra Club PRO

    Tenha acesso a benefícios exclusivos no App e no Site

    • Chega de anúncios

    • Mais recursos no app do Afinador

    • Atendimento Prioritário

    • Aumente seu limite de lista

    • Ajude a produzir mais conteúdo

    00:00 / 00:00

    Cifra Club Pro

    Aproveite o Cifra Club com benefícios exclusivos e sem anúncios
    Cifra Club Pro
    Aproveite o Cifra Club com benefícios exclusivos e sem anúncios
    OK