Cifra Club

Single Ladies (Put a Ring On It)

Beyoncé

Cifra: Principal (violão e guitarra)
Tom: E
(intro & verses)
E |--4/7\4------4/7\4-------------------4/7\4---------------------|
B |---------------------------------------------------------------|
G |---------------------------------------------------------------|
D |---------------------------------------------------------------|
A |---------------------------------------------------------------|
E |---------------------------------------------------------------|

(chorus part 1) (bass synthesizer)
E |---------------------------------------------------------------|
B |---------------------------------------------------------------|
G |---------------------------------------------------------------|
D |---------------------------------------------------------------|
A |---------------------------------------------------------------|
E |---------------------------------------------------------------|
E |--0h7p0------------------------0h7p0---------------------------|

(chorus part 2 & bridge) (treble synth)
E |-------------------------------------------------------------------|
B |-------------------------------------------------------------------|
G |-------------------------------------------------------------------|
D |-------------------------------------------------------------------|
A |--3/11\3------------------------3/11\3-----------------------------|
E |--1/9 \1------------------------1/9 \1-----------------------------|
exibições 47.164
Acordes para:

    0 comentários

    mostrar mais comentários

    Conseguiu tocar?

    1 tocaram 1 ainda não

    Grave um vídeo tocando Single Ladies (Put a Ring On It) e mande pra gente!

    00:00 / 00:00
    outros vídeos desta música
    repetir qualidade Automático
    Outros vídeos desta música
    00:00 / 00:00
    Automático
    OK