Cifra Club

Beat The Devil

Big Country

Cifra: Principal (violão e guitarra)
Selo Cifra Club: esta cifra foi revisada para atender aos critérios oficiais da nossa Equipe de Qualidade.
tom: E
[Intro]
E|------------------------------------------17\15-12~\-----------------------------|
B|-17\15-12~------------15~-----------------------------12~----------12~-----------|
G|---------------12-14b-16~--\16-14-12----------------------11~----------11~-------|
D|------------14-----------------------14~----------------------12~----------14~\--|
A|---------------------------------------------------------------------------------|
E|---------------------------------------------------------------------------------|

E|----------------------------------|
B|----------------------------------|
G|-7-7/9-9-9-12-12\9-9-9-7-7/9-9-9--|
D|-7-7/9-9-9-12-12\9-9-9-7-7/9-9-9--| (x3)
A|-5-5/7-7-7-10-10\7-7-7-5-5/7-7-7--|
E|----------------------------------|

E|-----------------------------------------------------------------------------|
B|-------17----15--------------------------------------------------------------|
G|-14/16----16----16-18-16-15-16-15-14-12----12--------------------------------|
D|----------------------------------------14----14-13-12----12-----------------|
A|-------------------------------------------------------14----14-13-12--------|
E|----------------------------------------------------------------------15-14--|

E|----------------------------------|
B|----------------------------------|
G|-7-7/9-9-9-12-12\9-9-9-7-7/9-9-9--|
D|-7-7/9-9-9-12-12\9-9-9-7-7/9-9-9--|
A|-5-5/7-7-7-10-10\7-7-7-5-5/7-7-7--|
E|----------------------------------|

[Verse]
(Guitar 1)
E|---------------------------------|
B|---------------------------------|
G|---------------------------------|
D|---------------------------------| (Repeats throughout verse)
A|---------------------------------|
E|-0-0-0-0-0-0-0-0-0-0-0-0-0-0-0-0-|
PM*********************************

(Guitar 2) 
(1:05)
E|--------------|
B|-12~----------|
G|-----11~------|
D|---------14~--|
A|--------------|
E|--------------|

[Interlude]
E|----------------------------------|
B|----------------------------------|
G|-7-7/9-9-9-12-12\9-9-9-7-7/9-9-9--|
D|-7-7/9-9-9-12-12\9-9-9-7-7/9-9-9--| (x3)
A|-5-5/7-7-7-10-10\7-7-7-5-5/7-7-7--|
E|----------------------------------|

E|-----------------------------------------------------------------------------|
B|-------17----15--------------------------------------------------------------|
G|-14/16----16----16-18-16-15-16-15-14-12----12--------------------------------|
D|----------------------------------------14----14-13-12----12-----------------|
A|-------------------------------------------------------14----14-13-12--------|
E|----------------------------------------------------------------------15-14--|

E|----------------------------------|
B|----------------------------------|
G|-7-7/9-9-9-12-12\9-9-9-7-7/9-9-9--|
D|-7-7/9-9-9-12-12\9-9-9-7-7/9-9-9--|
A|-5-5/7-7-7-10-10\7-7-7-5-5/7-7-7--|
E|----------------------------------|

[Verse 2]
E|------------------|
B|------------------|
G|------------------|
D|-0-2--------------| (x6)
A|-----2---2--------|
E|-------3---0-0-0--|
PM*****************

(1:39)
E|--------------|
B|-12~----------|
G|-----11~------|
D|---------14~--|
A|--------------|
E|--------------|

(1:45)
E|------------------|
B|------------------|
G|------------------|
D|-0-2--------------|
A|-----2---2--------|
E|-------3---0-0-0--|
PM*****************

[Chorus]
E|------------------------------------------------------------------------|
B|------------------------------------------------------------------------|
G|-4--5--9--12-5---------------7-7-7/9-9-9-7-7-7/9-9-9-7-7-7/9-9-9-12-12--|
D|-4--5--9--12-5~--7-7-7-7-5-5-7-7-7/9-9-9-7-7-7/9-9-9-7-7-7/9-9-9-12-12--|
A|-2--3--7--10-3~--7-7-7-7-5-5-5-5-5/7-7-7-5-5-5/7-7-7-5-5-5/7-7-7-10-10--|
E|-----------------5-5-5-5-3-3--------------------------------------------|

E|----------------------------------|
B|----------------------------------|
G|-4--5--9--12-5---------------7-7--|
D|-4--5--9--12-5~--7-7-7-7-5-5-7-7--|
A|-2--3--7--10-3~--7-7-7-7-5-5-5-5--|
E|-----------------5-5-5-5-3-3------|

[Interlude 2]
E|---------------------------|
B|-----8---------------------|
G|-7h9-------7------9-----7--|
D|-------7h9---9h12---7h9----| (x4)
A|---------------------------|
E|---------------------------|

E|-------------------7-10~-------------------8-7~--|
B|-----------------8-----------------------8-------|
G|-12-12\-9-7--7h9---------12-12\-9-5--7h9---------|
D|-12-12\-9-7--------------12-12\-9-5--------------|
A|-10-10\-7-5--------------10-10\-7-3--------------|
E|-------------------------------------------------|

[Verse 3]
E|------------------|
B|------------------|
G|------------------|
D|-0-2--------------| (x6)
A|-----2---2--------|
E|-------3---0-0-0--|
PM*****************

(2:42)
E|--------------|
B|-12~----------|
G|-----11~------|
D|---------14~--|
A|--------------|
E|--------------|

(2:47)
E|------------------|
B|------------------|
G|------------------|
D|-0-2--------------|
A|-----2---2--------|
E|-------3---0-0-0--|
PM*****************

[Chorus 2]
E|------------------------------------------------------------------------|
B|------------------------------------------------------------------------|
G|-4--5--9--12-5---------------7-7-7/9-9-9-7-7-7/9-9-9-7-7-7/9-9-9-12-12--|
D|-4--5--9--12-5~--7-7-7-7-5-5-7-7-7/9-9-9-7-7-7/9-9-9-7-7-7/9-9-9-12-12--|
A|-2--3--7--10-3~--7-7-7-7-5-5-5-5-5/7-7-7-5-5-5/7-7-7-5-5-5/7-7-7-10-10--|
E|-----------------5-5-5-5-3-3--------------------------------------------|

E|----------------------------------|
B|----------------------------------|
G|-4--5--9--12-5---------------7-7--|
D|-4--5--9--12-5~--7-7-7-7-5-5-7-7--|
A|-2--3--7--10-3~--7-7-7-7-5-5-5-5--|
E|-----------------5-5-5-5-3-3------|

[Interlude 3]
E|---------------------------|
B|-----8---------------------|
G|-7h9-------7------9-----7--|
D|-------7h9---9h12---7h9----| (x4)
A|---------------------------|
E|---------------------------|

E|-------------------7-10~-------------------8-7~--|
B|-----------------8-----------------------8-------|
G|-12-12\-9-7--7h9---------12-12\-9-5--7h9---------|
D|-12-12\-9-7--------------12-12\-9-5--------------|
A|-10-10\-7-5--------------10-10\-7-3--------------|
E|-------------------------------------------------|

[Chorus 3]
E|------------------------------------------------------------------------|
B|------------------------------------------------------------------------|
G|-4--5--9--12-5---------------7-7-7/9-9-9-7-7-7/9-9-9-7-7-7/9-9-9-12-12--|
D|-4--5--9--12-5~--7-7-7-7-5-5-7-7-7/9-9-9-7-7-7/9-9-9-7-7-7/9-9-9-12-12--|
A|-2--3--7--10-3~--7-7-7-7-5-5-5-5-5/7-7-7-5-5-5/7-7-7-5-5-5/7-7-7-10-10--|
E|-----------------5-5-5-5-3-3--------------------------------------------|

E|-----------------------------------------------------------------------|
B|-----------------------------------------------------------------------|
G|-4--5--9--12-5---------------7-7-------------7-7-------------7-7-7/9~--|
D|-4--5--9--12-5~--7-7-7-7-5-5-7-7-7-7-7-7-5-5-7-7-7-7-7-7-5-5-7-7-7/9~--|
A|-2--3--7--10-3~--7-7-7-7-5-5-5-5-7-7-7-7-5-5-5-5-7-7-7-7-5-5-5-5-5/7~--|
E|-----------------5-5-5-5-3-3-----5-5-5-5-3-3-----5-5-5-5-3-3-----------|

[Interlude 4]
E|------------------------------------------17\15-12~\------------------------------------------------------|
B|-17\15-12~------------15~-----------------------------12~----------12~-----------12~---------12~----------|
G|---------------12-14b-16~--\16-14-12----------------------11~----------11~-----------11~---------11~------|
D|------------14-----------------------14~----------------------12~----------14~\----------12~---------14~\-|
A|----------------------------------------------------------------------------------------------------------|
E|----------------------------------------------------------------------------------------------------------|

[Outro]
E|-----0-3--0----------------------------------|
B|-----2-2--2------3---------------------------|
G|-------------2/4---4-2-2p0------12-9--7/9\7--|
D|-0h2-----------------------2p0--12-9--7/9\7--| (x6)
A|--------------------------------10-7--5/7\5--|
E|---------------------------------------------|


************************************

| \   Slide down
| ~   Vibrato
| b   Bend
| /   Slide up
| PM  Palm mute
| h   Hammer-on
| p   Pull-off  
Outros vídeos desta música
    16 exibições
      • ½ Tom
      • A
      • Bb
      • B
      • C
      • Db
      • D
      • Eb
      • E
      • F
      • F#
      • G
      • Ab
    • Adicionar à lista

    Afinação da cifra

    Afinador online

      0 comentários

      Ver todos os comentários

      Entre para o Cifra Club PRO

      Tenha acesso a benefícios exclusivos no App e no Site

      • Chega de anúncios

      • Badges exclusivas

      • Mais recursos no app do Afinador

      • Atendimento Prioritário

      • Aumente seu limite de lista

      • Ajude a produzir mais conteúdo

      Cifra Club Pro

      Aproveite o Cifra Club com benefícios exclusivos e sem anúncios
      Cifra Club Pro
      Aproveite o Cifra Club com benefícios exclusivos e sem anúncios
      Ops (: Contenido disponible sólo en portugués.
      OK