Cifra Club

LUNCH

Billie Eilish

Cifra: Principal (violão e guitarra)
Selo Cifra Club: esta cifra foi revisada para atender aos critérios oficiais da nossa Equipe de Qualidade.
tom: Bm
[Intro]

Oh, mm-mm

[Refrão]

[Tab - Baixo]

E|----------------------------------------------------|
B|----------------------------------------------------|
G|----------------------------------------------------|
D|----------------------------------------------------|
A|-7--7---------------------7--7--9-7-----------------|
E|-------10--9-7--7--5-7-10-----------10-7--7--7--7---|

E|----------------------------------------------------|
B|----------------------------------------------------|
G|----------------------------------------------------|
D|----------------------------------------------------|
A|-7--7-----------------------------------------------|
E|-------10--9-7--7--10\--5-5--10\--3-3--2-2----------|

I could eat that girl for lunch

Yeah, she dances on my tongue

Tastes like she might be the one

Em7              Bm
    And I could never get enough
         A
I could buy her so much stuff
         G              F#m
It's a craving, not a crush, huh

Em7   Bm
    "Call me when you're there
          Em7(13)
Said, "I bought you somethin' rare"
       Bm
And I left it under "claire"

Em7                Bm
    So now, she's comin' up the stairs
       A
So I'm pullin' up a chair
        G       F#m           
And I'm puttin' up my hair

[Primeira Parte]

[Tab - Baixo]

E|----------------------------------------------------|
B|----------------------------------------------------|
G|----------------------------------------------------|
D|----------------------------------------------------|
A|-7--7---------------------7--7--9-7-----------------|
E|-------10--9-7--7--5-7-10-----------10-7--7--7--7---|

E|----------------------------------------------------|
B|----------------------------------------------------|
G|----------------------------------------------------|
D|----------------------------------------------------|
A|-7--7-----------------------------------------------|
E|-------10--9-7--7--10\--5-5--10\--3-3--2-2----------|

Baby, I think you were made for me

Somebody write down the recipe

Been tryin' hard not to overeat

You're just so sweet

Em7              Bm
    I'll run a shower for you
          Em7
Like you want
                Bm
Clothes on the counter for you
        Em7
Try 'em on
          Bm
If I'm allowеd
                       A   G  F#m
I'll help you take 'em off

Huh

[Refrão]

Em7         Bm
    I could eat that girl for lunch
           Em7(13)
Yeah, she dances on my tongue
              Bm
Tastes like she might be the one

Em7              Bm
    And I could never get enough
         A
I could buy her so much stuff
         G
It's a craving, not a crush, huh

[Pós-Refrão]

[Tab - Solo]

E|-10--9-----------10-12-10---9------9-10-14----------|
B|-------12---------------------12--------------------|
G|----------11----------------------------------------|
D|-------------12-------------------------------------|
A|----------------------------------------------------|
E|----------------------------------------------------|

E|-10--9-------------10-9---9-10-12-------------------|
B|-------12-------------------------12----------------|
G|----------11----------------------------------------|
D|-------------12-12----------------------------------|
A|----------------------------------------------------|
E|----------------------------------------------------|

Em7             Bm
    Oh, i just wanna get her off, oh
Em7    Bm  Em7  Bm
    Oh
A   G
Oh, oh
F#m
    Oh

[Segunda Parte]

[Tab - Baixo]

E|----------------------------------------------------|
B|----------------------------------------------------|
G|----------------------------------------------------|
D|----------------------------------------------------|
A|-7--7---------------------7--7--9-7-----------------|
E|-------10--9-7--7--5-7-10-----------10-7--7--7--7---|

E|----------------------------------------------------|
B|----------------------------------------------------|
G|----------------------------------------------------|
D|----------------------------------------------------|
A|-7--7-----------------------------------------------|
E|-------10--9-7--7--10\--5-5--10\--3-3--2-2----------|

She's takin' pictures in the mirror

Oh my god, her skin's so clear

Tell her, "bring that over here"


You need a seat? I'll volunteer

Now she's smilin' ear to ear

She's the headlights, I'm the deer

[Ponte]

Em7                     Bm
    I've said it all before

But I'll say it again
Em7                    Bm
    I'm interested in more

Than just bein' your friend
Em7                 Bm
    I don't wanna break it

Just want it to bend
A                     G    F#m
  Do you know how to bend?

[Refrão]

[Tab - Baixo]

E|----------------------------------------------------|
B|----------------------------------------------------|
G|----------------------------------------------------|
D|----------------------------------------------------|
A|-7--7---------------------7--7--9-7-----------------|
E|-------10--9-7--7--5-7-10-----------10-7--7--7--7---|

E|----------------------------------------------------|
B|----------------------------------------------------|
G|----------------------------------------------------|
D|----------------------------------------------------|
A|-7--7-----------------------------------------------|
E|-------10--9-7--7--10\--5-5--10\--3-3--2-2----------|

I could eat that girl for lunch

She dances on my tongue

I know it's just a hunch

But she might be the one

[Final]

E5         B5  D5
   I could
E5  D5  B5
        Eat that girl for lunch
F#5  E5  D5      B5
         Yeah, she
D5  A5               G5            F#5
    Tastes like she might be the one

E5         B5
   I could
D5      E5
I could
Bm
   Eat that girl for lunch
E5           Bm
   Yeah, she
          A
Yeah, she
              G                F#m
Tastes like she might be the one
Outros vídeos desta música
    5.611 exibições
    • Simplificar cifra
      • ½ Tom
      • Am
      • Bbm
      • Bm
      • Cm
      • C#m
      • Dm
      • Ebm
      • Em
      • Fm
      • F#m
      • Gm
      • G#m
    • Adicionar à lista

    Afinação da cifra

    Afinador online

      0 comentários

      Ver todos os comentários

      Entre para o Cifra Club PRO

      Tenha acesso a benefícios exclusivos no App e no Site

      • Chega de anúncios

      • Badges exclusivas

      • Mais recursos no app do Afinador

      • Atendimento Prioritário

      • Aumente seu limite de lista

      • Ajude a produzir mais conteúdo

      Cifra Club Pro

      Aproveite o Cifra Club com benefícios exclusivos e sem anúncios
      Cifra Club Pro
      Aproveite o Cifra Club com benefícios exclusivos e sem anúncios
      Ops (: Contenido disponible sólo en portugués.
      OK