Cifra Club

SKINNY

Billie Eilish

Cifra: Principal (violão e guitarra)
Selo Cifra Club: esta cifra foi revisada para atender aos critérios oficiais da nossa Equipe de Qualidade.
tom: A
[Intro] A7M  F#m7(11) 

[Tab - Intro]

Parte 1 de 2
   A7M
E|---------------------------------------------------|
B|-------------2-------------------------2-----------|
G|-------1-----------1-----0h1-----1-----------1-----|
D|---2-----2-----2-----2-------2-----2-----2-----2---|
A|-0---0-----0-----0-----0-------0-----0-----0-----0-|
E|---------------------------------------------------|

Parte 2 de 2
   F#m7(11)
E|-----------------------------0---------------------|
B|----------------0-------------------------0--------|
G|-1h2-----2-------------2------------2-----------2--|
D|-----2------2------2------2-----2-----2-----2------|
A|---------------------------------------------------|
E|-------2------2------2------2-----2-----2-----2----|

[Primeira Parte]

[Dedidlhado Primeira Parte]

Parte 1 de 5
   A7M
E|----------------------------------------------------|
B|---------------2-------------------------2----------|
G|-0h1-----1-----------1-----0h1-----1-----------1----|
D|-----2-----2-----2-----2-------2-----2-----2-----2--|
A|-------0-----0-----0-----0-------0-----0-----0-----0|
E|----------------------------------------------------|

Parte 2 de 5
   F#m7(11)
E|------------------------------0---------------------|
B|-----------------0-------------------------0--------|
G|-1h2-----2--------------2------------2-----------2--|
D|-----2-------2------2------2-----2-----2-----2------|
A|----------------------------------------------------|
E|-------2-------2------2------2-----2-----2-----2----|

Parte 3 de 5
   Bm7
E|-------------2-------------------------2------------|
B|-------3-----------3-----2h3-----3-----------3------|
G|---2-----2-----2-----2-------2-----2-----2----------|
D|----------------------------------------------------|
A|-2---2-----2-----2-----2-------2-----2-----2--------|
E|----------------------------------------------------|

Parte 4 de 5
   E7                    E6
E|-------------0--------------------------------------|
B|-------3-----------3-----3/2-----3-----3p0----------|
G|---1-----1-----1-----1-------1-----1----------------|
D|----------------------------------------------------|
A|----------------------------------------------------|
E|-0---0-----0-----0-----0-------0-----0--------------|

Parte 5 de 5
   A7M
E|---------------------------------------------0------|
B|-------------2-------------------------2------------|
G|-------1-----------1-----0h1-----1------------------|
D|---2-----2-----2-----2-------2-----2-----2-----2----|
A|-0---0-----0-----0-----0-------0-----0-----0-----0--|
E|----------------------------------------------------|

A7M
    Fell in love for the first time
                            F#m7(11)
With a friend, it's a good sign

Feelin' off when I feel fine
                     Bm7
Twenty-one took a lifetime

People say I look happy
                     E7
Just because I got skinny

But the old me is still
        E6
Me and maybe the real me
                         A7M
And I think she's pretty

[Refrão]

[Tab - Refrão]

Parte 1 de 3
   F#m7(11)
E|---------------------------4p2-------------------2--|
B|-------2-----2------2--------------2------2---------|
G|---2-----2------2------2-------2------2------2------|
D|----------------------------------------------------|
A|----------------------------------------------------|
E|-2---2-----2------2------2-------2-------2-----2----|

E|----------------------------------------------------|
B|--2-------------------------------------------------|
G|----------------------------------------------------|
D|----------------------------------------------------|
A|----------------------------------------------------|
E|----2-----------------------------------------------|

Parte 2 de 3
   Bm7
E|-------------------5-----5/4-----------4p2----------|
B|-------3-----3-------------------3------------------|
G|---2-----2-----2-----2-------2-----2-------2--------|
D|----------------------------------------------------|
A|-2---2-----2-----2-----2-------2-----2-------2------|
E|----------------------------------------------------|

Parte 3 de 3
    Bm7 Cm7 C#m7                          Dm
E|--2---3---4------------4----------------------------|
B|--3---4---5------5-----------5------------6---------|
G|--2---3---4--4-----4-----4------4-------------------|
D|----------------------------------------------------|
A|--2---3---4----4-----4-----4------4-----5-----------|
E|----------------------------------------------------|

              F#m7(11)
And I still cry
  Bm7
Cry
Cm7  C#m7  Dm
           And you know why

[Segunda Parte]

[Dedilhado Segunda Parte]

Parte 1 de 5
   A7M
E|----------------------------------------------------|
B|-------------2-------------------------2------------|
G|-------1-----------1-----0h1-----1-----------1------|
D|---2-----2-----2-----2-------2-----2-----2-----2----|
A|-0---0-----0-----0-----0-------0-----0-----0-----0--|
E|----------------------------------------------------|

Parte 2 de 5
   F#m7(11)
E|------------------------------0---------------------|
B|-----------------0-------------------------0--------|
G|-1h2-----2--------------2------------2-----------2--|
D|-----2-------2------2------2-----2-----2-----2------|
A|----------------------------------------------------|
E|-------2-------2------2------2-----2-----2-----2----|

Parte 3 de 5
   Bm7
E|-------------2-------------------------2------------|
B|-------3-----------3-----2h3-----3-----------3------|
G|---2-----2-----2-----2-------2-----2-----2----------|
D|----------------------------------------------------|
A|-2---2-----2-----2-----2-------2-----2-----2--------|
E|----------------------------------------------------|

Parte 4 de 5
   E7                    E6
E|-------------0--------------------------------------|
B|-------3-----------3-----3/2-----3-----3p0----------|
G|---1-----1-----1-----1-------1-----1----------------|
D|----------------------------------------------------|
A|----------------------------------------------------|
E|-0---0-----0-----0-----0-------0-----0--------------|

Parte 5 de 5
   A7M
E|---------------------------------------------0------|
B|-------------2-------------------------2------------|
G|-------1-----------1-----0h1-----1------------------|
D|---2-----2-----2-----2-------2-----2-----2-----2----|
A|-0---0-----0-----0-----0-------0-----0-----0-----0--|
E|----------------------------------------------------|

A7M
    Am I acting my age now?
                        F#m7(11)
Am I already on the way out?

When I step off the stage

I'm a bird in a cage
                    Bm7
I'm a dog in a dog pound

And you said I was your secret
                           E7
And you didn't get to keep it

And the internet is hungry
         E6 
For the meanest kinda funny
                             A7M
And somebody's gotta feed it

[Refrão]

[Tab - Refrão]

Parte 1 de 3
   F#m7(11)
E|---------------------------4p2-------------------2--|
B|-------2-----2------2--------------2------2---------|
G|---2-----2------2------2-------2------2------2------|
D|----------------------------------------------------|
A|----------------------------------------------------|
E|-2---2-----2------2------2-------2-------2-----2----|

E|----------------------------------------------------|
B|--2-------------------------------------------------|
G|----------------------------------------------------|
D|----------------------------------------------------|
A|----------------------------------------------------|
E|----2-----------------------------------------------|

Parte 2 de 3
   Bm7
E|-------------------5-----5/4-----------4p2----------|
B|-------3-----3-------------------3------------------|
G|---2-----2-----2-----2-------2-----2-------2--------|
D|----------------------------------------------------|
A|-2---2-----2-----2-----2-------2-----2-------2------|
E|----------------------------------------------------|

Parte 3 de 3
    Bm7 Cm7 C#m7                          Dm
E|--2---3---4------------4------------------------5---|
B|--3---4---5------5-----------5----------5/6---------|
G|--2---3---4--4-----4-----4------4-----------7-------|
D|----------------------------------------------------|
A|--2---3---4----4-----4-----4------4-----------5-----|
E|----------------------------------------------------|

                   F#m7(11)
Oh, do you still cry?
        Bm7
Still cry?

( Cm7  C#m7  Dm )

[Ponte]

[Tab - Ponte]

Parte 1 de 3 
   C#m7 Cm7 Bm7                  Cm7 C#m7 
E|-4----3---2-----------------------------------------|
B|-5----4---3------3-----3-----3-4---5------5----5----|
G|-4----3---2--2-----2-----2---2-3---4--4-----4----4--|
D|----------------------------------------------------|
A|-4----3---2----2-----2-----2-2-3---4----4-----4----4|
E|----------------------------------------------------|

Parte 2 de 3
   C#m7 Cm7 Bm7                  Cm7 C#m7     
E|-4----3---2------2----------------------4-----------|
B|-5----4---3------------3-----3-4---5-----------5----|
G|-4----3---2--2-----2-----2---2-3---4-4-----4-----4--|
D|----------------------------------------------------| (2x)
A|-4----3---2----2-----2-----2-2-3---4---4-----4-----4|
E|----------------------------------------------------|

Parte 3 de 3
   C#m7 Cm7 Bm7
E|-4----3---2-----------------------------------------|
B|-5----4---3-----------------------------------------|
G|-4----3---2--2--------------------------------------|
D|----------------------------------------------------|
A|-4----3---2----2------------------------------------|
E|----------------------------------------------------|

C#m7  Cm7  Bm7      Cm7  C#m7
I,         I never did  you wrong

(Never did you wrong)
Cm7  Bm7            Cm7  C#m7
And my (Oh), my patience is gone

(Is gone)
Cm7  Bm7         Cm7     C#m7
And  I (I), I never did you wrong (You)
Cm7  Bm7              C#m7
I,       I loved you for so long (Hmm)

[Final] G  D  A 
        G  D  A  
        G  D  F#m7(11)  B  D
Outros vídeos desta música
    8.010 exibições
    • Simplificar cifra
      • ½ Tom
      • A
      • Bb
      • B
      • C
      • Db
      • D
      • Eb
      • E
      • F
      • F#
      • G
      • Ab
    • Adicionar à lista

    Afinação da cifra

    Afinador online

      0 comentários

      Ver todos os comentários

      Entre para o Cifra Club PRO

      Tenha acesso a benefícios exclusivos no App e no Site

      • Chega de anúncios

      • Badges exclusivas

      • Mais recursos no app do Afinador

      • Atendimento Prioritário

      • Aumente seu limite de lista

      • Ajude a produzir mais conteúdo

      Cifra Club Pro

      Aproveite o Cifra Club com benefícios exclusivos e sem anúncios
      Cifra Club Pro
      Aproveite o Cifra Club com benefícios exclusivos e sem anúncios
      Ops (: Contenido disponible sólo en portugués.
      OK