Cifra Club

Your Power

Billie Eilish

Cifra: Principal (violão e guitarra)
tom: Am
[Intro] F7M  Am  Em  
        F7M  Am  Em 
        F7M  Am  Em 
        F7M  Am  Em  

[Tab - Intro]

Parte 1 De 3

   F7M         Am    Em  F7M         Am  Em
E|-----8-7-0-1-0---3---------8-7-0-1-0------|
B|-------------------0-------------------3--|
G|------------------------------------------|
D|------------------------------------------|
A|------------------------------------------|
E|------------------------------------------|

Parte 2 De 3

          F7M              Am   Em  F7M
E|-----------------8-7-0-1-0--3-------------|
B|-3/5p1-------1----------------0-----------|
G|--------0h2-------------------------------|
D|------------------------------------------|
A|------------------------------------------|
E|------------------------------------------|

Parte 3 De 3

                Am  Em
E|------------------------------------------|
B|--3/5-5-5--3--3---0-----------------------|
G|--4/5-5-5--4--4---0-----------------------|
D|------------------------------------------|
A|------------------------------------------|
E|------------------------------------------|

[Refrão] 

F7M              Am        Em
    Try not to abuse your power
F7M                    Am        G
    I know we didn't choose to change
F7M                        Am      
    You might not want to lose
      Em
Your power
F7M                       Am   Em
    But having it's so strange

[Primeira Parte] 

  F7M                             
She said you were a hero
 Am             Em
You played the part
         F7M
But you ruined her in a year
      Am               Em
Don't act like it was hard
          F7M
And you swear you didn't know

(Didn't know, didn't know)
            Am               Em
No wonder why you didn't ask
          F7M
She was sleeping in you clothes

(In your clothes, in your clothes)
               Am             Em
But now she's got to get to class

[Pré-Refrão] 

             F7M
How dare you
               Am  Em
And how could you
                    F7M
Will you only feel bad

When they find out
                          Am  Em
If you could take it all back

Would you?

[Refrão] 

F7M              Am        Em
    Try not to abuse your power
F7M                    Am        Em
    I know we didn't choose to change
F7M                        Am      
    You might not want to lose
      Em
Your power
F7M                       Am   Em
    But having it's so strange

[Segunda Parte] 

F7M
I thought that I was special
 Am          Em               F7M
You made me feel like it was my fault
                     Am          Em
You were the devil, lost your appeal
         F7M
Does it keep you in control

(In control, in control)
            Am                Em
For you to keep her in a cage
          F7M
And you swear you didn't know

(Didn't know, didn’t know)
               Am                 Em
You said you thought she was your age

[Pré-Refrão] 

             F7M
How dare you
               Am  Em
And how could you?
                    F7M                               
Will you only feel bad if it turns
                              Am  Em
Out, that they kill your contract
           F7M
Would you?

[Refrão] 

             Am        Em
Try not to abuse your power
F7M                    Am        Em
    I know we didn't choose to change
F7M                        Am       
    You might not want to lose
      Em
Your power

F7M                  Am  Em
    But power isn't pain

[Final] F7M  Am  Em
        F7M  Am  Em
        F7M  Am  Em
        F7M  Am  Em

[Tab - Final]

Parte 1 De 3

   F7M         Am    Em  F7M         Am  Em
E|-----8-7-0-1-0---3---------8-7-0-1-0------|
B|-------------------0-------------------3--|
G|------------------------------------------|
D|------------------------------------------|
A|------------------------------------------|
E|------------------------------------------|

Parte 2 De 3

          F7M              Am   Em  F7M
E|-----------------8-7-0-1-0--3-------------|
B|-3/5p1-------1----------------0-----------|
G|--------0h2-------------------------------|
D|------------------------------------------|
A|------------------------------------------|
E|------------------------------------------|

Parte 3 De 3

                Am  Em
E|------------------------------------------|
B|--3/5-5-5--3--3---0-----------------------|
G|--4/5-5-5--4--4---0-----------------------|
D|------------------------------------------|
A|------------------------------------------|
E|------------------------------------------|
00:00 / 00:00
Outros vídeos desta música
Repetir
Outros vídeos desta música
Composição de Billie Eilish / Finneas O'Connell
Colaboração e revisão:
  • Rafael Brito
56.934 exibições
  • Simplificar cifra
    • ½ Tom
    • Am
    • Bbm
    • Bm
    • Cm
    • C#m
    • Dm
    • Ebm
    • Em
    • Fm
    • F#m
    • Gm
    • G#m
  • Adicionar à lista

    0 comentários

    Ver todos os comentários

    Conseguiu tocar?

    43 Tocaram 3 Ainda não

    Grave um vídeo tocando Your Power e nos envie!

    Entre para oCifra Club PRO

    Tenha acesso a benefícios exclusivos no App e no Site

    • Chega de anúncios

    • Prioridade de compra em lançamentos

    • Mais recursos no app do Afinador

    • Atendimento Prioritário

    • Descontos nos produtos Cifra Club

    • Ajude a produzir mais conteúdo

    00:00 / 00:00

    Cifra Club Pro

    Aproveite o Cifra Club com benefícios exclusivos e sem anúncios
    Cifra Club Pro
    Aproveite o Cifra Club com benefícios exclusivos e sem anúncios
    OK