Cifra Club

Dancing With Myself

Billy Idol

Cifra: Principal (violão e guitarra)
Selo Cifra Club: esta cifra foi revisada para atender aos critérios oficiais da nossa Equipe de Qualidade.
tom: G
[Tab - Riff]

E|-0--0-0-0--0--0----0--|
B|-5--5-5-5--4--5-7--5--|
G|----------------------|
D|----------------------|
A|----------------------|
E|----------------------|

[Primeira Parte]

E
On the floor of Tokyo
A
Or down in London town to go, go
B
With the record selection

And the mirror's reflection
A
I'm dancing with myself
E
When there's no-one else in sight
A
In the crowded lonely night
B
Well I wait so long for my love vibration
A
And I'm dancing with myself

[Refrão]

E
Oh dancing with myself
A
Oh dancing with myself
B
Well there's nothing to lose

And there's nothing to prove
A
I'll be dancing with myself
E

E
If I looked all over the world
A
And there's every type of girl
B
But your empty eyes

Seem to pass me by
A
Leave me dancing with myself

[Refrão 2]

E
So let's sink another drink
A
'Cause it'll give me time to think
B
If I had the chance

I'd ask the world to dance
A
And I'll be dancing with myself

[Refrão]

E
Oh dancing with myself
A
Oh dancing with myself
B
Well there's nothing to lose

And there's nothing to prove
A
I'll be dancing with myself

( E  A  E  B )

[Tab - Solo]

E|----------------------------------------------------------------------|
B|----------------------------------------------------------------------|
G|-------------------------4-4-4-4-------------------------4----4--4b6--|
D|---------2-2-2-2-4-4-4-4-----------------2-2-2-2-4-4-4-4--------------|
A|-2-2-2-2-------------------------2-2-2-2------------------------------|
E|----------------------------------------------------------------------|

E|----------------------------------------------------------------------|
B|----------------------------------------------------------------------|
G|-------------------------4-4-4-4--4--4----4--4----4--4--4--4--4--4--4-|
D|---------2-2-2-2-4-4-4-4--------------------------4--4--4--4--4--4--4-|
A|-2-2-2-2------------------------------------------2--2--2--2--2--2--2-|
E|----------------------------------------------------------------------|

E
If I looked all over the world
A
And there's every type of girl
B
But your empty eyes

Seem to pass me by
A
Leave me dancing with myself

[Refrão 2]

E
So let's sink another drink
A
'Cause it'll give me time to think
B N.C
If I had the chance

I'd ask the world to dance
A
And I'll be dancing with myself

[Ponte]

E
Oh dancing with myself
A
Oh dancing with myself
B
If I had the chance

I'd ask the world to dance
B
If I had the chance

I'd ask the world to dance
B
If I had the chance

I'd ask the world to dance

( B )

E   A   B   A 
Dancing with myself
Dancing with myself
Dancing with myself
Dancing with myself

[Solo] E  A  B  A
       E  A  B  A

E
If I looked all over the world
A
And there's every type of girl
B
But your empty eyes

Seem to pass me by
A
Leave me dancing with myself

[Refrão 2]

E
So let's sink another drink
A
'Cause it'll give me time to think
B
If I had the chance

I'd ask the world to dance
A
And I'll be dancing with myself

[Final]

E   A   B   A
Oh dancing with myself
Oh dancing with myself
If I had the chance
I'd ask the world to dance
If I had the chance
I'd ask the world to dance
If I had the chance
I'd ask the world to dance
Outros vídeos desta música
    109.015 exibições
      • ½ Tom
      • A
      • Bb
      • B
      • C
      • Db
      • D
      • Eb
      • E
      • F
      • F#
      • G
      • Ab
    • Adicionar à lista

    Afinação da cifra

    Afinador online

      0 comentários

      Ver todos os comentários

      Entre para o Cifra Club PRO

      Tenha acesso a benefícios exclusivos no App e no Site

      • Chega de anúncios

      • Badges exclusivas

      • Mais recursos no app do Afinador

      • Atendimento Prioritário

      • Aumente seu limite de lista

      • Ajude a produzir mais conteúdo

      Cifra Club Pro

      Aproveite o Cifra Club com benefícios exclusivos e sem anúncios
      Cifra Club Pro
      Aproveite o Cifra Club com benefícios exclusivos e sem anúncios
      OK