Cifra Club

Rebel Yell

Billy Idol

Cifra: Principal (violão e guitarra)
Selo Cifra Club: esta cifra foi revisada para atender aos critérios oficiais da nossa Equipe de Qualidade.
tom: D
Intro
E|---10--10--10--10--10--10--10--10---|
B|---12--12--12--12--12--12--12--12---|
G|------------------------------------|
D|----------------------------7---9---| (3x)
A|---------------9--------------------|
E|---7--------------------------------|

Ponte
E|--10--9--10--7--10--9--10--7--|
B|------------------------------|
G|------------------------------|
D|--5---------------------------|
A|--5---------------------------|
E|--3---------------------------|

E|--10--9--10--7--10--9--10--7--|--10--9--10--7--10--9--10--7--|
B|------------------------------|------------------------------|
G|------------------------------|------------------------------|
D|--4---------------------------|--2h--------------------------|
A|--4---------------------------|--2---------------------------|
E|--2---------------------------|--0---------------------------|

E|--10--9--10--7--10--9--10--7--|--10--9--10--7--10--9--10--7--|
B|------------------------------|------------------------------|
G|------------------------------|------------------------------|
D|--2h--------------------------|--5---------------------------|
A|--2---------------------------|--5---------------------------|
E|--0---------------------------|--3---------------------------|

E|--10--9--10--7--10--9--10--7--|--10--9--10--7--10--9--10--7--|
B|------------------------------|------------------------------|
G|------------------------------|------------------------------|
D|--4---------------------------|--2h--------------------------|
A|--4---------------------------|--2---------------------------|
E|--2---------------------------|--0---------------------------|

E|--10--9--10--7--10----9----|-------------------|------------------|
B|---------------------------|-------------------|------------------|
G|----------------7----------|--4----------------|------------------|
D|--2-------------7-----7----|--4----------------|------------------|
A|--2-------------5-----7----|--2----------------|------------------|
E|--0-------------------5----|-------------------|------------------|

E|--10~---------------|
B|--12~---------------|
G|--------------------|
D|--------------------|
A|--------------------|
E|--------------------|

Verso
E|----------------------|
B|----------------------|
G|--4----4------4----4--|
D|--4----4------4----4--|
A|--4----4------4----4--|
E|----------------------|

E|----------------------|----------------------|----------------------|
B|----------------------|----------------------|----------------------|
G|--4----4------4----4--|--4----4------4----4--|--4----4------4----4--|
D|--4----4------4----4--|--4----4------4----4--|--4----4------4----4--|
A|--2----2------2----2--|--2----2------2----2--|--2----2------2----2--|
E|----------------------|----------------------|----------------------|

E|----------------------|----------------------|----------------------|
B|----------------------|----------------------|----------------------|
G|----------------------|----------------------|----------------------|
D|--7----7------7----7--|--7----7------7----7--|--5----5------5----5--|
A|--7----7------7----7--|--7----7------7----7--|--5----5------5----5--|
E|--5----5------5----5--|--5----5------5----5--|--3----3------3----3--|

E|----------------------|----------------------|----------------------|
B|-----------------------|----------------------|----------------------|
G|-----------7--7--------|--4----4------4----4--|--4----4------4----4--|
D|--2--------7--7--7--7--|--4----4------4----4--|--4----4------4----4--|
A|--2--------5--5--7--7--|--2----2------2----2--|--2----2------2----2--|
E|--0--------------5--5--|----------------------|----------------------|

E|----------------------|----------------------|----------------------|
B|----------------------|----------------------|----------------------|
G|--4----4------4----4--|--4----4------4----4--|----------------------|
D|--4----4------4----4--|--4----4------4----4--|--7----7------7----7--|
A|--2----2------2----2--|--2----2------2----2--|--7----7------7----7--|
E|----------------------|----------------------|--5----5------5----5--|

E|----------------------|----------------------|---------------------|
B|----------------------|----------------------|---------------------|
G|----------------------|----------------------|-----------7---------|
D|--7----7------7----7--|--5----5------5----5--|--2--------7----7----|
A|--7----7------7----7--|--5----5------5----5--|--2--------5----7----|
E|--5----5------5----5--|--3----3------3----3--|--0-------------5----|

Refrão
E|-----------------------|----------------------|----------------------|
B|-----------------------|----------------------|----------------------|
G|*--4--------4--4----4--|--4--------4--4----4--|--4--------4--4----4--|
D|*--4--------4--4----4--|--4--------4--4----4--|--4--------4--4----4--|
A|---2h-------2--2----2--|--2h-------2--2----2--|--2h-------2--2----2--|
E|-----------------------|----------------------|----------------------|

E|-----------------------|----------------------|----------------------|
B|-----------------2--3--|----------------------|----------------------|
G|--4--------2--4-----4--|----------------------|----------------------|
D|--4--------4--4-----4--|--7h-------7--7----7--|--7h-------7--7----7--|
A|--2--------2--2-----2--|--7h-------7--7----7--|--7h-------7--7----7--|
E|-----------------------|--5h-------5--5----5--|--5h-------5--5----5--|

E|----------------------|----------------------| |
B|----------------------|----------------------| |
G|----------------------|-----------7---------*| |
D|--5h-------5--5----5--|--2--------7----7----*| |
A|--5h-------5--5----5--|--2--------5----7-----| |
E|--3h-------3--3----3--|--0-------------5-----| |

[Intro]

[Ponte]

Bm
Last night a little dancer came dancin' to my door
D/A                            G               Em  D A Bm
Last night a little angel Came pumpin cross my floor
Bm
She said "Come on baby I got a licence for love
D/A                    G           Em  D A Bm
And if it expires pray help from above

[Refrão]

Bm
In the midnight hour she cried- "more, more, more"
D/A                          G            Em  D A Bm
With a rebel yell she cried- "more, more, more"
Bm
In the midniight hour babe- "more, more, more"
D/A                 G           Em    D     A     Bm
With a rebel yell- "more, more, more" More, more, more

Bm
She don't like slavery, she won't sit and beg
D/A                                G          Em  D A Bm
But when I'm tired and lonely she sees me to bed
Bm
What set you free and brought you to be me babe
D/A                          G         Em    D A Bm
What set you free I need you hear by me   Because

[Refrão]

Bm
In the midnight hour she cried- "more, more, more"
D/A                           G           Em  D A Bm
With a rebel yell she cried- "more, more, more"
Bm
In the midnight hour babe- "more, more, more"
D/A                   G           E E
With a rebel yell- "more, more, more"

[Ponte]

G    F#m   Em
           He lives in his own heaven
G    F#m   Em
           Collects it to go from the seven eleven
G    F#m   Em
           Well he's out all night to collect a fare
G    F#m   Em
           Just so long, just so long it don't mess up his hair

Bm
I walked the ward with you, babe
D/A                   G    Em  D A Bm
A thousand miles with you
Bm
I dried your tears of pain, babe
D/A                 G    Em  D A Bm
A million times for you

Bm
I'd sell my soul for you babe
D/A                    G    Em D A Bm
For money to burn with you
Bm
I'd give you all, and have none, babe
D/A                                  G    Em
Just, just, justa, justa to have you here by me

   D A Bm
Because

[Refrão]

Bm
In the midnight hour she cried- "more, more, more"
D/A                           G           Em  D A Bm
With a rebel yell she cried- "more, more, more"
Bm
In the midniight hour babe- "more, more, more"
D/A                          G           Em     D     A     Bm
With a rebel yell she cried "more, more, more" More, more, more
               A
Oh yeah little baby
         G
She want more
Em           A     D     Bm
More, more, more, more, more
               D/A
Oh yeah little baby
         G
She want more
Em          D     A     Bm
More, more, more, more, more
Outros vídeos desta música
    52.451 exibições
      • ½ Tom
      • A
      • Bb
      • B
      • C
      • Db
      • D
      • Eb
      • E
      • F
      • F#
      • G
      • Ab
    • Adicionar à lista

    Afinação da cifra

    Afinador online

      0 comentários

      Ver todos os comentários

      Entre para o Cifra Club PRO

      Tenha acesso a benefícios exclusivos no App e no Site

      • Chega de anúncios

      • Mais recursos no app do Afinador

      • Atendimento Prioritário

      • Aumente seu limite de lista

      • Ajude a produzir mais conteúdo

      Cifra Club Pro

      Aproveite o Cifra Club com benefícios exclusivos e sem anúncios
      Cifra Club Pro
      Aproveite o Cifra Club com benefícios exclusivos e sem anúncios
      OK