Cifra Club

Red Flag

Billy Talent

Cifra: Principal (violão e guitarra)
tom: C
hey this is my first tab, so plz rate!
My verse might not be completely right, but it'sI've got so far for it. this song's in Drop D tuning.  The bridge isn't perfect and itbe a bit rough and hard to do. The strumming was really hard to put down in this song, I tried my best. :)

Chorus: (first time just drums)
Cast off the crutch that kills the pain,
The red flag waving never meant the same.
The kids of tomorrow don't need today,
When they live in the sins of yesterday.

Cast off the crutch that kills the pain
E|-----------------|--------------------|
B|-----------------|--------------------|
G|-----------------|--5---5---5---5---5-|
D|--7--7--7--7--7--|--5---5---5---5---5-|
A|--7--7--7--7--7--|--3-0-3-0-3-0-3-0-3-|
D|--7--7--7--7--7--|--------------------|

The red flag waving never meant the same.
E|-----------------|--------------------|
B|-----------------|--------------------|
G|-----------------|--------------------|
D|--5--5--5--5--5--|--3---3---3---3---3-|
A|--5--5--5--5--5--|--3---3---3---3---3-|
D|--5--5--5--5--5--|--3-0-3-0-3-0-3-0-3-|

The kids of tommorow don't need today
E|-----------------|--------------------|
B|-----------------|--------------------|
G|--5--5--5--5--5--|--------------------|
D|--5--5--5--5--5--|--5---5---5---5---5-|
A|--3--3--3--3--3--|--5---5---5---5---5-|
D|-----------------|--5-0-5-0-5-0-5-0-5-|

When they live in the sins of yesterday.
E|-----------------|--------------------|
B|-----------------|--------------------|
G|-----------------|--------------------|
D|--2--2--2--2--2--|--6---6---6---6---6-|
A|--2--2--2--2--2--|--6---6---6---6---6-|
D|--2--2--2--2--2--|--6-0-6-0-6-0-6-0-6-|

Verse
            Well I've never seen us act like this
E|--8--8--8----------------------------------7-7-7-|
B|--10-10-10---------------------------------9-9-9-|
G|--9--9--9----------------------------------7-7-7-|
D|-------------------------------------------------|
A|-------------------------------------------------|
D|-------------------------------------------------|

Our only hope is the minds of kids, and they'll show us a thing or two
E|---------------------------8--8--8------------------------------7-7-7-|
B|---------------------------10-10-10-----------------------------9-9-9-|
G|---------------------------9--9--9------------------------------7-7-7-|
D|----------------------------------------------------------------------|
A|----------------------------------------------------------------------|
D|----------------------------------------------------------------------|
                    Our only weapons are the guns of youth
E|--4--5-7-|8--8--8---8--8--8--8--8--8--8--8--7--5--7-7-7-|
B|--5--6-8-|10-10-10--10-10-10-10-10-10-10-10-8--6--9-9-9-|
G|--4--7-7-|9--9--9---9--9--9--9--9--9--9--9--7--7--7-7-7-|
D|---------|----------------------------------------------|
A|---------|----------------------------------------------|
D|---------|----------------------------------------------|

    It's only time before they tighten the noose.
E|--7--7--7--7--7--7--7--7--7--10-10-10-8--8--8--|
B|--9--9--9--9--9--9--9--9--9--12-12-12-10-10-10-|
G|--7--7--7--7--7--7--7--7--9--10-10-11-9--9--9--|
D|-----------------------------------------------|
A|-----------------------------------------------|
D|-----------------------------------------------|

    And then the hunt will be on for you.
E|--8--8--8--8--8--8--8--8---7--5--7-7-7-|-4--5-7|
B|--10-10-10-10-10-10-10-10--8--6--9-9-9-|-5--6-8|
G|--9--9--9--9--9--9--9--9---7--7--7-7-7-|-4--7-7|
D|---------------------------------------|-------|
A|---------------------------------------|-------|
D|---------------------------------------|-------|

Pre-Chorus
    The red flag waving never meant the same............no
E|--5------------------------5---------------------------0-|
B|--6------------------------6--------------3-3-3-3-3-3--1-|
G|--5------------------------7--------------4-4-4-5-4-0--2-|
D|---------------------------------------------------------|
A|---------------------------------------------------------|
D|---------------------------------------------------------|

    The red flag waving never meant the same
E|--5------------------------5--------------------------0--|
B|--6------------------------6--------------3-3-3-3-3-3-5--|
G|--5------------------------7--------------4-4-4-5-4-0-4--|
D|------------------------------------------------------2--|
A|---------------------------------------------------------|
D|---------------------------------------------------------|

Chorus x2
Cast off the crutch that kills the pain,
The red flag waving never meant the same.
The kids of tommorow don't need today,
When they live in the sins of yesterday.

Verse x2 (from 'Our only weapons are the guns of youth', same chords and stuff but lyrics)
Like the smallest bee packs a sting,
Like a pawn checkmates a king,
We'll attack at the crack of dawn.
Build a ladder if there's a wall,
Don't be afraid to slip and fall,
Speak for yourself or they'll speak for you.

Pre-Chorus
The red flag waving never meant the same,
The red flag waving never meant the same,
Aaah!

Chorus x2

Bridge x6 (on x3 or third time- whichever way you call it- the lyrics start)
E|--5-5-----------4-4---0-0-0---5-5-7-8--7-5-5|
B|--5-5-6-3-3-3-6-5-5-3-1-1-1-3-6-6-8-10-8-6-6|
G|--5-5-7-4-4-4-7-4-4-4-2-0-2-4-5-5-7-9--7-7-5|
D|--7-7-7-5-0-5-7-----5-------5---------------|
A|--------------------------------------------|
D|--------------------------------------------|
Like a fire, don't need water
Like a jury, needs a liar
Like riot, don't need order
Like a madman, needs a martyr.

(now the bass comes in)
We don't need them! x8

Chorus (first time only drums, then guitar comes for the second time and the third and its the end of the song)
00:00 / 00:00
Outros vídeos desta música
Repetir
Outros vídeos desta música
Composição de Billy Talent
Colaboração e revisão:
  • Carlos Rocha
3.793 exibições
    • ½ Tom
    • A
    • Bb
    • B
    • C
    • Db
    • D
    • Eb
    • E
    • F
    • F#
    • G
    • Ab
  • Adicionar à lista

    0 comentários

    Ver todos os comentários

    Entre para oCifra Club PRO

    Tenha acesso a benefícios exclusivos no App e no Site

    • Chega de anúncios

    • Prioridade de compra em lançamentos

    • Mais recursos no app do Afinador

    • Atendimento Prioritário

    • Descontos nos produtos Cifra Club

    • Ajude a produzir mais conteúdo

    00:00 / 00:00

    Cifra Club Pro

    Aproveite o Cifra Club com benefícios exclusivos e sem anúncios
    Cifra Club Pro
    Aproveite o Cifra Club com benefícios exclusivos e sem anúncios
    OK