Cifra Club

Aprenda

Cornered

Biohazard

Cifra: Principal (violão e guitarra)
tom: E
From: "mosh baby" 
Date: Sun, 31 Jan 1999 13:39:39 PST

        (State of the world adress)


+++++++++++++++++++++++++++++++++++++++

- tune down 1/2 step
- PowerChords /5

++++++++++++++++++++


Intro & Chorus:

e |-----------------|
B |-----------------|
G |---5-------5-----|
D |-2-5--2----5--2--|
A |-2-3--2----3--2--|
E |-0----0-------0--|
 


G |--5---4--------------|--------|
D |--5---4---5---2------|----5---|
A |--3---2---5---2------|----5---|
E |-(3)-(2)--3----------|-0--3---|

G |--5----4-------------|-----------------|
D |--5----4----5----2---|--(5)-2--(5)-2---|
A |--3----2----5----2---|---5--2---5--2---|
E |-(3)--(2)---3----0---|---3--0---3--0---|

G |------3------------------------------|
D |--2---3---2---x---6-5---x---5-6--5---|
A |--2---1---2---x---6-5---x---5-6--5---|
E |--0-------0---x---4-3---x---3-4--3---|

 E  A#  E   - G G#  G   G# G  C B  G F#
G |------3---------------------------5--4--------|
D |--2---3---2---x--5-6-5--x---6-5---5--4---5-4--|
A |--2---1---2---x--5-6-5--x---6-5---3--2---5-4--|
E |--0-------0---x--3-4-3--x---4-3--(3)(2)--3-2--|

"When the shit hits the fan... plan"
G |-------3-3-3--|--------|
D |--2----3-3-3--|---5----|
A |--2----1-1-1--|---5----|
E |--0-----------|---3----|




After BassPart: A  G#  E  F# F
"Like it or not....me" 
G |--14---13---9--|--11---10--|
D |--14---13---9--|--11---10--|
A |--12---11---7--|---9----8--|
E |-(12)-(11)-(7)-|--(9)--(8)-|

  |     repeat... |
G |--10--11-------|--14---13---9---|
D |--10--11-------|--14---13---9---|
A |---8---9-------|--12---11---7---|
E |---------------|----------------|

through Solo:       | repeat...  |
G |-----|-----------|------------|----------|
D |--3--|--7--6--2--|--3-4-3-----|-7--6--2--|
A |--3--|--7--6--2--|--3-4-3-----|-7--6--2--|
E |--1--|--5--4--0--|--1-2-1-----|-5--4--0--|



Compositor não encontrado.
394 exibições
    • ½ Tom
    • A
    • Bb
    • B
    • C
    • Db
    • D
    • Eb
    • E
    • F
    • F#
    • G
    • Ab
  • Adicionar à lista

    0 comentários

    Ver todos os comentários

    Conseguiu tocar?

    0 Tocaram 0 Ainda não

    Grave um vídeo tocando Cornered e nos envie!

    00:00 / 00:00
    Outros vídeos desta música
    Repetir Qualidade Automático
    Outros vídeos desta música
    00:00 / 00:00
    Automático

    Cifra Club Pro

    Aproveite o Cifra Club com benefícios exclusivos e sem anúncios
    Cifra Club Pro
    Aproveite o Cifra Club com benefícios exclusivos e sem anúncios
    OK