Cifra Club

Dani

Biquini Cavadão

Cifra: Principal
exibições 623.082
Tom: G
(intro)
   G     D     Em     C      G      D     Em     C
E|-------------------------|-------------------------|
B|-------------------------|-------------------------|
G|-------------------------|---------------------4-5-|
D|-7/9-7-5-5/7-5-4-5-4-----|-7/9-7-5-5/7-5-4-5-7-----|
A|---------------------7-5-|-------------------------|
E|-------------------------|-------------------------|

(solo)
   G     D     Em     C      G      D     Em     C
E|-------------------------|-------------------------|
B|-------------------------|-------------------------|
G|------------------4-/5-4-|-------------------------|
D|-------------------------|-5-5/7-------------------|
A|-------------------------|-------------------------|
E|-------------------------|-------------------------|

G           D/F#                   Em
  Dane-se a hora, se é cedo se é tarde
           C                 G
Dane-se a capa, a foto, o encarte
          D/F#                 Em
Dane-se o mundo, o raso, o profundo
         C
Dane-se nada,
         G
Dane-se tudo,
D                    Em
  Quando você está aqui
C             G
  Dane-se o mundo
D                Em     C
  Quando você sorri

G            D/F#                 Em
  Dane-se o filme, a história, o ator
          C                  G
Dane-se Caprio, De Niro e Monroe
        D/F#             Em
Dane-se Figo, Ronaldo, Zidanne
         C                   G
Dane-se tudo que não tiver Dani

 B           Em
   Só penso nela,
        D
Quem é ela,
        C     D
O nome dela      é Daniela.

(intro) G B Em A C D

G            D/F#                 Em
  Dane-se o clipe, a banda, o cantor
           C                   G
Dane-se o tédio, o vento, o calor,
           D/F#             Em
Dane-se o tempo, passado, futuro
         C
Dane-se nada,
         G
Dane-se tudo,
D                    Em
  Quando você está aqui
C            G
  Dane-se o mundo
D                Em     C
  Quando você sorri

G              D/F#                  Em
  Dane-se o emprego, o salário, o patrão
           C                    G
Dane-se o medo, a loucura, a razão
           D/F#                  Em
Dane-se a moda, se é brega ou 'Armani'
         C                   G
Dane-se tudo que não tiver Dani

B            Em
   Só penso nela,
       D
Quem é ela,
        C    D        G
O nome dela     é Daniela
B            Em
   Só penso nela,
         D
Quem é ela,
        C    D
O nome dela     é Daniela.

   G     D     Em     C      G      D     Em     C
E|-------------------------|-------------------------|
B|-------------------------|-------------------------|
G|-------------------------|---------------------4-5-|
D|-7/9-7-5-5/7-5-4-5-4-----|-7/9-7-5-5/7-5-4-5-7-----|
A|---------------------7-5-|-------------------------|
E|-------------------------|-------------------------|
   G        B       Em        D9          C        D
E|-----------------------------------------------------------|
B|-----------------------------------------------------------|
G|12-11/9-----------------------------9----------------------|
D|------12-10-12-10/9-7-9-10-10/9-7-9---12/10-9---10-9/7-5-0-|
A|---------------------------------------------10------------|
E|-----------------------------------------------------------|

  Dane-se a hora, se é cedo se é tarde
E|--------------|--------------------|
B|-----8--------|-----7--------------|
G|---7---7------|---7---7------------|
D|-5------------|--------------------|
A|--------------|-5------------------|
E|--------------|--------------------|

  Dane-se a capa, a foto, o encarte
E|--------------|------8-------------|
B|-----8--------|---------8----------|
G|---9---9------|---9----------------|
D|--------------|--------------------|
A|-7------------|--------------------|
E|--------------|-8------------------|

Dane-se o mundo, o raso, o profundo
E|--------------|--------------------|
B|-----8--------|-----7--------------|
G|---7---7------|---7---7------------|
D|-5------------|--------------------|
A|--------------|-5------------------|
E|--------------|--------------------|

Dane-se nada,     Dane-se tudo,
E|------------|------8-------------|
B|-----8------|---------8----------|
G|---9---9----|---9----------------|
D|------------|--------------------|
A|-7----------|--------------------|
E|------------|-8------------------|

G    D             Em
   Quando você está aqui
C   G             D
   Dane-se o mundo
  Em              C
   Quando você sorri

G         D                   Em
  Dane-se o filme, a história, o ator
         C                      G
Dane-se Caprio, De Niro e Monroe
        D                  Em
Dane-se o verso, a rima também
         C                   G
Dane-se tudo que não tiver Dani

B          Em
Só penso nela,
         A
Quem é ela,
         C    D         G
O nome dela   é Daniela
B          Em
Só penso nela,
         A
Quem é ela,
         C    D         G
O nome dela   é Daniela
B          Em
Só penso nela,
         A
Quem é ela,
         C
O nome dela

         D
E|-----------|
B|-----------|
G|---2-2/4-2-|
D|-0---------|
A|-----------|
E|-----------|

( G )
Acordes para:

    0 comentários

      mostrar mais comentários

      Conseguiu tocar?

      40tocaram1ainda não

      Grave um vídeo tocando Dani e mande pra gente!

      00:00 / 00:00
      outros vídeos desta música
      repetirqualidadeautomática
      Outro vídeos desta música
        00:00 / 00:00
        automática
        OK