Notificações Amigos pendentes

      Biquini Cavadão

      Impossível

      6.119 exibições
      intro
      G -------------------------------------
      D -------------------------------------
      A --0(16x)--2(16z)--0(16x)--2(8x)------
      E ---------------------------------0(8x)
      >
      Tudo bem quando termina bem
      **A**
      G --------------------------------------
      D --------------------------------------
      A --0--0----2--2----0--0----2--2--------
      E ----------------------------------0--0
      >
              Mas eu sei que no coração
      **B**
      G -----------------------------------------------------------------
      D -----------------------------------------------------------------
      A --0--0----2--2------------2--2--0-2--5--5----7--7----------------
      E ------------------2--2-------------------------------2--2----0--0
      >
      Tudo que viceja ....
      G --------------------------------------
      D --------------------------------------
      A --0--0----2--2----0--0----2--2--------
      E ----------------------------------0--0
      
      E não podemos evitar que a vida..
      **B** 
      
      É impossível, é impossível esquecer você
      refrão
      G ---------------------------
      D ---------------------------
      A --0(8x)--------------------
      E --------4(8x)--2(8x)--4(8x)
      >
      É impossível esquecer o que senti.
      G ---------------------------
      D ---------------------------
      A --0(8x)--------------------
      E --------4(8x)--2(8x)--3(8x)
      
      Tudo que morre ...
      **A**
      Mas ante que eu me esqueça,
      **B**
      
      É impossível
      refrão
      
      »»especial««
      G -------------------------------
      D -------------------------------
      A --0(16x)--2(16x)--4(16x)-------
      E -------------------------3(16x)
      >
      Tudo que morre ...
      »»especial««
      
      Mas ante que eu me esqueça,
      **B**
      
      refrão
      
      
      
      _______________________________________________________
      Contribuição: Bruner(brunerf@bol.com.br)

      Comentários 0

      140 .
      140 cancelar

      conseguiu tocar?

      covers

      Grave um vídeo tocando Impossível e mande pra gente!

      Ex.: http://www.youtube.com/watch?v=0IvSvIwGdwk
      ver covers de outras músicas »
      0:00 / 0:00

      Capítulos

        2 versões de violão dificuldade exibições contribuição e correção
        2 versões de guitarra dificuldade exibições contribuição e correção
        2 versões de cavaco dificuldade exibições contribuição e correção
        2 versões de teclado dificuldade exibições contribuição e correção
        1 versão de baixo exibições contribuição e correção
        play/pausefechar subir/descer velocidade
        6ª corda E5ª corda A4ª corda D3ª corda G2ª corda B1ª corda E
          acordes
          publicidade
          fechar
          ok