Cifra Club

Janaína

Biquini Cavadão

Cifra: Principal (violão e guitarra)
tom: A
[Intro] A  A7M  Bm7  Dm6
        A  A7M  Bm7  Dm6 

E|-7/9-7------------------------------------|
B|--------10--7---7-10-7--------------------|
G|--------------9---------9--6-----6--9-----|
D|------------------------------9-----------|
A|------------------------------------------|
E|------------------------------------------|

E|-7/9-7------------------------------------|
B|--------10--7---7-10-7--------------------|
G|--------------9---------9--6-----6--9-----|
D|------------------------------9-----------|
A|------------------------------------------|
E|------------------------------------------|

E|-7/9--7----------7/9--7-------------------|
B|---------10--7-----------10--7------------|
G|------------------------------------------|
D|------------------------------------------|
A|------------------------------------------|
E|------------------------------------------|

E|-7/9--7-----------------------------------|
B|--------10--6---6-10-6--------------------|
G|--------------9--------9-7-9--------------|
D|------------------------------------------|
A|------------------------------------------|
E|------------------------------------------|

E|-7/9-7------------------------------------|
B|--------10--7---7-10-7--------------------|
G|--------------9---------9--6-----6--9-----|
D|------------------------------9-----------|
A|------------------------------------------|
E|------------------------------------------|

E|-7/9-7------------------------------------|
B|--------10--7---7-10-7--------------------|
G|--------------9---------9--6-----6--9-----|
D|------------------------------9-----------|
A|------------------------------------------|
E|------------------------------------------|

E|-7/9--7----------7/9--7-------------------|
B|---------10--7-----------10--7------------|
G|------------------------------------------|
D|------------------------------------------|
A|------------------------------------------|
E|------------------------------------------|

E|-7/9--7-----------------------------------|
B|--------10--6---6-10-6--------------------|
G|--------------9--------9-7-9--------------|
D|------------------------------------------|
A|------------------------------------------|
E|------------------------------------------|

[Primeira Parte]

 A
Janaina acorda todo dia às quatro e meia
   A7M
E já na hora de ir pra cama, Janaina pensa
  Bm7
Que o dia não passou
  Dm6
Que nada aconteceu

 A
Janaina é passageira
                       A7M
Passa as horas do seu dia em trens lotados
                         Bm7
Filas de supermercados, bancos e repartições
  Dm6
Que repartem sua vida

[Segunda Parte]

         F#m7
Mas ela diz

Que apesar de tudo ela tem sonhos
     Bm7
Ela diz
                          D7M
Que um dia a gente há de ser feliz
     F#m7
Ela diz

Que apesar de tudo ela tem sonhos
     Bm7
Ela diz
                         D7M
Que um dia a gente há de ser feliz
            
Se Deus quiser

[Solo] A  A7M  Bm7  Dm6 

E|-7/9-7------------------------------------|
B|--------10--7---7-10-7--------------------|
G|--------------9---------9--6-----6--9-----|
D|------------------------------9-----------|
A|------------------------------------------|
E|------------------------------------------|

E|-7/9-7------------------------------------|
B|--------10--7---7-10-7--------------------|
G|--------------9---------9--6-----6--9-----|
D|------------------------------9-----------|
A|------------------------------------------|
E|------------------------------------------|

E|-7/9--7----------7/9--7-------------------|
B|---------10--7-----------10--7------------|
G|------------------------------------------|
D|------------------------------------------|
A|------------------------------------------|
E|------------------------------------------|

E|-7/9--7-----------------------------------|
B|--------10--6---6-10-6--------------------|
G|--------------9--------9-7-9--------------|
D|------------------------------------------|
A|------------------------------------------|
E|------------------------------------------|

[Primeira Parte]

 A
Janaina é beleza de gestos, abraços
 A7M
Mãos, dedos, anéis e labios
 Bm7
Dentes e sorriso solto
  Dm6
Que escapam do seu rosto

 A
Janaina é só lembrança de amores guardados
 A7M
Hoje é apenas mais uma pessoa
                   Bm7
Que tem medo do futuro que aconteceu?
   Dm6
Se alimenta do passado

[Segunda Parte]

         F#m7
Mas ela diz

Que apesar de tudo ela tem sonhos
     Bm7
Ela diz
                          D7M
Que um dia a gente há de ser feliz
 F#m7
Diz

Que apesar de tudo ela tem sonhos
     Bm7
Ela diz
                          D7M
Que um dia a gente há de ser feliz

[Ponte]

            F#m7  D#m7(5-)    
Se Deus quiser 
            F#m7  D#m7(5-)  D7M
Se Deus quiser

       D#m7(5-)
Já não imagina
        D7M
Quantos anos tem
      C#m7
Já na iminência
           
De outro aniversário
 D7M
Janaina acorda todo dia às quatro e meia
 C#m7
Já na hora de ir pra cama, Janaina pensa
  Bm7
Que o dia não passou
  Dm6
Que nada aconteceu

[Solo] A  A7M  Bm7  Dm6 

E|-7/9-7------------------------------------|
B|--------10--7---7-10-7--------------------|
G|--------------9---------9--6-----6--9-----|
D|------------------------------9-----------|
A|------------------------------------------|
E|------------------------------------------|

E|-7/9-7------------------------------------|
B|--------10--7---7-10-7--------------------|
G|--------------9---------9--6-----6--9-----|
D|------------------------------9-----------|
A|------------------------------------------|
E|------------------------------------------|

E|-7/9--7----------7/9--7-------------------|
B|---------10--7-----------10--7------------|
G|------------------------------------------|
D|------------------------------------------|
A|------------------------------------------|
E|------------------------------------------|

E|-7/9--7-----------------------------------|
B|--------10--6---6-10-6--------------------|
G|--------------9--------9-7-9--------------|
D|------------------------------------------|
A|------------------------------------------|
E|------------------------------------------|

[Segunda Parte]

         F#m7
Mas ela diz

Que apesar de tudo ela tem sonhos
     Bm7
Ela diz
                          D7M
Que um dia a gente há de ser feliz
 F#m7
Diz

Que apesar de tudo ela tem sonhos
     Bm7
Ela diz
                          D7M
Que um dia a gente há de ser feliz
            F#m7  D#m7(5-)  Bm7  D7M
Se Deus quiser

[Final] F#m7  D#m7(-5)  Bm7  D7M  A
Composição de Álvaro / Bruno / Coelho / Miguel / Sheik
Colaboração e revisão:
344.356 exibições
    • ½ Tom
    • A
    • Bb
    • B
    • C
    • Db
    • D
    • Eb
    • E
    • F
    • F#
    • G
    • Ab
  • Adicionar à lista

    0 comentários

    Ver todos os comentários
    00:00 / 00:00
    Outros vídeos desta música
    Repetir Qualidade Automático
    Outros vídeos desta música
    00:00 / 00:00
    Automático

    Cifra Club Pro

    Aproveite o Cifra Club com benefícios exclusivos e sem anúncios
    Cifra Club Pro
    Aproveite o Cifra Club com benefícios exclusivos e sem anúncios
    OK