Cifra Club

Múmias

Biquini Cavadão

Cifra: Principal
exibições 286.998
Tom: G
A música toda segue com essa sequência de acordes
(Em G C D)

OBS: OS ACORDES (G E D9) DEVEM SER DEDILHADOS
INTRO Em G C D9 (4x)

        Em               G                C           D9
E|------0---------------3---------|------0------------0----------|
B|------0----------------3--------|------1-------------3---------|
G|------0--------------0----------|------0-----------2-----------|
D|------2------------0------------|------2----------0------------|
A|------2-------------------------|--3-3-3---------0-------------|
E|--0-0-0----------3--------------|------------------------------|

(Em G C D)
Bem aventurados sejam aqueles que amam essa desordem
Nós viemos a reboque, este mundo é um grande choque
Mas, não somos desse mundo
De cidades em torrentes
De pessoas em correntes

BASE: Em A (2x)
RIFF (2x)

E|-------15-------------------------
B|---12------12--15-----------------
G|------------------12--14----------
D|--------------------------12--14--
A|----------------------------------
E|----------------------------------

  (Em G C D)
Errar não é humano  |
Depende de quem erra|Refrão
Esperamos pela vida | (4x)
Vivemos só de guerra|

INTRO (1x)

(Em G C D)
Viemos preparados pra almoçar soldados
Chegamos atrasados, sumiram com a cidade antes de nós
Mesmo assim, basta esquecê-la no outro dia
Transformando em lataria, tudo que estiver ao nosso alcance

RIFF (2x)

REFRÃO (4x)

(Em G C D)
"Chega de marra, chega de farra, chega de guerra
Quem nunca falha, fala, erra
Só que te joga a primeira pedra
Aqui na terra, bicho te pega fica violento
Meu raciocínio transformado em racionamento
Só que tá lento é minha forma de reprodução
Corta câmera, corta luz que eu continuo em ação
Aproveitando nossa liberdade de expressão
Renato Russo, o Eu Suave e o Biquini Cavadão"

Bem aventurados sejam os senhores do progresso RIFF
Esses senhores do regresso                    (3x)

REFRÃO (4x)

(Em G C D)
Vivendo só de guerra
Vivendo só de guerra
Viemos espalhar discórdia
(Esperamos pela vida, vivendo só de guerra)
Conquistar muitas vitórias
(Esperamos pela vida, vivendo só de guerra)
Conquistar muitas derrotas
(Esperamos pela vida, vivendo só de guerra)
(Esperamos pela vida, vivendo só de guerra)
Acordes para:
    Colaboração e revisão:

    0 comentários

      mostrar mais comentários

      Conseguiu tocar?

      24tocaram0ainda não

      Grave um vídeo tocando Múmias e mande pra gente!

      00:00 / 00:00
      outros vídeos desta música
      repetirqualidadeautomática
      Outro vídeos desta música
        00:00 / 00:00
        automática
        OK