Cifra Club

Múmias

Biquini Cavadão

Cifra: Principal (violão e guitarra)
tom: G
Riff Intro 
                
E|---------------|
B|---------------|
G|--2p0----------|
D|------2p0------|
A|----------2p0--|
E|---------------|

Intro (4x)

     Em             G          C/G          D/A
E|------0----------3-x--|------0-------------0---------|
B|------0----------0-x--|------1--------------3--------|
G|------0--------0-0-x--|------0-----------0---0-------|
D|------2------0-----x--|------2----------4-----4------|
A|------2------------x--|--3-3-3---------5-------------|
E|--0-0------3-------x--|------------------------------|

(Em G C/G D/A)
Bem aventurados sejam aqueles que amam essa desordem
Nós viemos a reboque, este mundo é um grande choque
Mas, não somos desse mundo
De cidades em torrentes
De pessoas em correntes

BASE: Em A (2x)
RIFF (2x)

E|-------15-------------------------
B|---12------12--15-----------------
G|------------------12--14----------
D|--------------------------12--14--
A|----------------------------------
E|----------------------------------

   (Em G C/G D/A)
Errar não é humano  |
Depende de quem erra|Refrão
Esperamos pela vida | (4x)
Vivemos só de guerra|

INTRO (1x)

(Em G C/G D)
Viemos preparados pra almoçar soldados
Chegamos atrasados, sumiram com a cidade antes de nós
Mesmo assim, basta esquecê-la no outro dia
Transformando em lataria, tudo que estiver ao nosso alcance

RIFF (2x)

REFRÃO (4x)

(Em G C D)
"Chega de marra, chega de farra, chega de guerra
Quem nunca falha, fala, erra
Só que te joga a primeira pedra
Aqui na terra, bicho te pega fica violento
Meu raciocínio transformado em racionamento
Só que tá lento é minha forma de reprodução
Corta câmera, corta luz que eu continuo em ação
Aproveitando nossa liberdade de expressão
Renato Russo, o Eu Suave e o Biquini Cavadão"

Bem aventurados sejam os senhores do progresso RIFF
Esses senhores do regresso                    (3x)

REFRÃO (4x)

(Em G C D)
Vivendo só de guerra
Vivendo só de guerra
Viemos espalhar discórdia
(Esperamos pela vida, vivendo só de guerra)
Conquistar muitas vitórias
(Esperamos pela vida, vivendo só de guerra)
Conquistar muitas derrotas
(Esperamos pela vida, vivendo só de guerra)
(Esperamos pela vida, vivendo só de guerra)
Composição de Álvaro / Bruno / Incidental / Miguel -sheik - Coelho - / Wrap Suave
311.547 exibições
    • ½ Tom
    • A
    • Bb
    • B
    • C
    • Db
    • D
    • Eb
    • E
    • F
    • F#
    • G
    • Ab
  • Adicionar à lista

    0 comentários

    Ver todos os comentários
    00:00 / 00:00
    Outros vídeos desta música
    Repetir Qualidade Automático
    Outros vídeos desta música
    00:00 / 00:00
    Automático

    Cifra Club Pro

    Aproveite o Cifra Club com benefícios exclusivos e sem anúncios
    Cifra Club Pro
    Aproveite o Cifra Club com benefícios exclusivos e sem anúncios
    OK