Cifra Club

Tédio

Biquini Cavadão

Cifra: Principal (violão e guitarra)
tom: G
Intro e Riff 1:

E|--------------------------------|
B|--8--7--7/8--7~--8--7--7/8--7~--|
G|--9--7--8/9--7~--9--7--8/9--7~--|
D|--------------------------------|
A|--------------------------------|
E|--------------------------------|

Base Riff 1: Em  D6/E

Riff 2:

E|--7--8---12--8---7----------|
B|--8--10--10--10--8--8----8--|
G|--------------------7h9--7--|
D|----------------------------|
A|----------------------------|
E|----------------------------|

Riff 3:

E|--7-7---7--8---7--|
B|--8-8---8--10--8--|
G|------------------|
D|------------------|
A|------------------|
E|------------------|

Rif 4 e 5:

E|--------------------------------------|
B|--------------------------------------|
G|--------------------------9-8-7-------------------------|
D|--------9-7---------------------10-9--------------------|
A|-10-7-7-----10-9-10-7--7-------------7-7-10-9-7-9-10-7--|
E|--------------------------------------------------------|


Em                                     (Riff 1)
Sabe esses dias em que horas dizem nada
Em                                             (Riff 1)
E você nem troca o pijama, preferia estar na cama
G                                     Em  (Riff 2)
O dia , a monotonia tomou conta de mim
    G
É o tédio , cortando os meus programas, esperando o
     Em  (Riff 3)
meu fim
                 Am
Sentado no meu quarto
        Em
O tempo voa
                Am
Lá fora a vida passa
            Em
E eu aqui a toa
                Am
Eu já tentei de tudo
                 Bm
Mas não tenho remédio
                         (Riff 4)   (Riff 5)
Pra livrar-me deste tédio

Em                              (Riff 1)
Vejo um programa que não me satisfaz
 Em
Leio o jornal que é de ontem , pois pra mim , tanto
   (Riff 1)
faz

G
Já tive esse problema, sei que o tédio é sempre
  Em   (Riff 2)
assim
G                                    Em   (Riff 3)
Se tudo piorar, não sei do que sou capaz

Am                      Em
Tédio, não tenho um programa
Am                     Em
Tédio , esse é o meu drama
                 Am
O que corrói é o tédio
                 Bm
Um dia, eu fico sério
                 Em  Am  Em  Am  Em  Am  Bm  Em
Me atiro deste prédio.
Composição de Álvaro / Bruno / Miguel / Sheik
362.605 exibições
  • Simplificar cifra
    • ½ Tom
    • A
    • Bb
    • B
    • C
    • Db
    • D
    • Eb
    • E
    • F
    • F#
    • G
    • Ab
  • Adicionar à lista

    0 comentários

    Ver todos os comentários
    00:00 / 00:00
    Outros vídeos desta música
    Repetir Qualidade Automático
    Outros vídeos desta música
    00:00 / 00:00
    Automático

    Cifra Club Pro

    Aproveite o Cifra Club com benefícios exclusivos e sem anúncios
    Cifra Club Pro
    Aproveite o Cifra Club com benefícios exclusivos e sem anúncios
    OK