Cifra Club

Aprenda

Scars

Black Label Society

Cifra: Principal (violão e guitarra)
tom: C
Tuning : Standard (E A D G B E)

  INTRO
E|------------3------0------0------------------------3--3------|
B|----0h1-----3------1------1------------------------3--3------|
G|----2-------0------0------0------------------------0--0------|
D|----2-------0------0h2----2-------0h2--0-----0-----0--0------|
A|----0-------2------3------3-------3--------3---3---2--2------|
E|------------3--------------------------------------3--3------|

Verse is basically the same as intro, but more simple, just strum the chords
or you can improv something especially when play C chord

  VERSE
E|---------3----0---------------3---|-------1----------------0--------------|
B|---1-----3----1---------------3---|-------1----------------1--------------|
G|---2-----0----0---------------0---|-------2----------------0--------------|
D|---2-----0----0h2-------------0---|-------3----------------0h2------------|
A|---0-----2----3---------------2---|-------3----------------3--------------|
E|---------3--------------------3---|------(1)------------------------------|

 CHORUS
E|-------------3-------0------|-----3----------1---------0-------------------|
B|----1--------3-------1------|-----3----------1---------1-------------------|
G|----2--------0-------0------|-----0----------2---------0-------------------|
D|----2--------0-------2------|-----0----------3---------2-------------------|
A|----0--------2-------3------|-----2----------3---------3-------------------|
E|-------------3--------------|-----3---------(1)----------------------------|
        Repeat 3x           

SOLO

E|------------------------------------------|
B|------------------------------------------|
G|--------------------------12h14--14/16----|
D|-----------------12-12h14-----------------|
A|--------10-12/14--------------------------|
E|-10h12------------------------------------|

E|-------------------------------------|----------------------|
B|-15h17-15--17------------------------|-------12h13-13p12----|
G|----------------16\14-12--14~-12-----|-12h14-------------12-|
D|---------------------------------14--|----------------------|
A|-------------------------------------|----------------------|
E|-------------------------------------|----------------------|

E|-------------------19p17p15---------------------------------|
B|-17r15~~-----15h17----------17p15----17p15----15------------|
G|----------------------------------16-------16-----14b16~~---|
D|------------------------------------------------------------|
A|------------------------------------------------------------|
E|------------------------------------------------------------|

E|-------------------------------------------|--------------------|
B|-------15-------------------12h13-13h15-12-|-12br---------------|
G|-14b16----16r14-12----12h14----------------|------14br-12----12-|
D|-------------------14----------------------|--------------14----|
A|-------------------------------------------|--------------------|
E|-------------------------------------------|--------------------|

E|-15-13-12------------12h13h15-15/17-15-17-|-19r17--19r17--19r17---15h17p15------------------------|
B|-x--------15---13h15----------------------|----------------------------------15b17~---------------|
G|-x----------------------------------------|---------------------------------------------16r14-12--|
D|-x----------------------------------------|-------------------------------------------------------|
A|------------------------------------------|-------------------------------------------------------|
E|------------------------------------------|-------------------------------------------------------|

 SOLO BACKING
E|---0-----------0--------|----------------3--------0------------------------|
B|---0-----------1--------|--------1-------3--------1------------------------|
G|---0-----------0--------|--------2-------0--------0------------------------|
D|---2-----------2--------|--------2-------0--------2------------------------|
A|---2-----------3--------|--------0-------2--------3------------------------|
E|---0--------------------|----------------3---------------------------------|
    During slide part
Composição de Zakk Wylde
Colaboração e revisão:
  • Eudes
  • Pedro Rodrigues
5.430 exibições
    • ½ Tom
    • A
    • Bb
    • B
    • C
    • Db
    • D
    • Eb
    • E
    • F
    • F#
    • G
    • Ab
  • Adicionar à lista

    0 comentários

    Ver todos os comentários

    Conseguiu tocar?

    1 Tocaram 0 Ainda não

    Grave um vídeo tocando Scars e nos envie!

    00:00 / 00:00
    outros vídeos desta música
    repetir qualidade Automático
    Outros vídeos desta música
    00:00 / 00:00
    Automático

    Cifra Club Pro

    Aproveite o Cifra Club com benefícios exclusivos e sem anúncios
    Cifra Club Pro
    Aproveite o Cifra Club com benefícios exclusivos e sem anúncios
    OK