Cifra Club

Loner

Black Sabbath

Cifra: Principal
exibições 3.900
Tom: D# (com acordes na forma de E) Afinação: Eb Ab Db Gb Bb Eb
E|----------------------------------------------|
B|----------------------------------------------|
G|----------------------------------------------|
D|---------12---------------------12------------|
A|-14-14---10---12-12-14--14-14---10---12-14-12-|
E|-12-12-x----x-10-10/12--12-12-x----x-10/12-10-|

E|---------------------------------------------|
B|---------------------------------------------|
G|---------------------------------------------|
D|---------12----------------------14-13-12----|
A|-14-14---10---12-12-14--14-14---/12-11-10----|
E|-12-12-x----x-10-10/12--12-12-x--------------|

E|----------------------------------------------|
B|----------------------------------------------|
G|----------------------------------------------|
D|---------12---------------------12------------|
A|-14-14---10---12-12-14--14-14---10---12-14-12-|
E|-12-12-x----x-10-10/12--12-12-x----x-10/12-10-|

E|---------------------------------------------|
B|---------------------------------------------|
G|---------------------------------------------|
D|---------12----------------------14-13-12----|
A|-14-14---10---12-12-14--14-14---/12-11-10----|
E|-12-12-x----x-10-10/12--12-12-x--------------|

E|----------------------------------------------|
B|----------------------------------------------|
G|----------------------------------------------|
D|---------12---------------------12------------|
A|-14-14---10---12-12-14--14-14---10---12-14-12-|
E|-12-12-x----x-10-10/12--12-12-x----x-10/12-10-|

E|---------------------------------------------|
B|---------------------------------------------|
G|---------------------------------------------|
D|---------12----------------------14-13-12----|
A|-14-14---10---12-12-14--14-14---/12-11-10----|
E|-12-12-x----x-10-10/12--12-12-x--------------|

E|----------------------------------------------|
B|----------------------------------------------|
G|----------------------------------------------|
D|---------12---------------------12------------|
A|-14-14---10---12-12-14--14-14---10---12-14-12-|
E|-12-12-x----x-10-10/12--12-12-x----x-10/12-10-|

E|---------------------------------------------|
B|---------------------------------------------|
G|---------------------------------------------|
D|---------12----------------------14-13-12----|
A|-14-14---10---12-12-14--14-14---/12-11-10----|
E|-12-12-x----x-10-10/12--12-12-x--------------|

E|----------------------------------------------|
B|----------------------------------------------|
G|----------------------------------------------|
D|---------12---------------------12------------|
A|-14-14---10---12-12-14--14-14---10---12-14-12-|
E|-12-12-x----x-10-10/12--12-12-x----x-10/12-10-|

E|---------------------------------------------|
B|---------------------------------------------|
G|---------------------------------------------|
D|---------12----------------------14-13-12----|
A|-14-14---10---12-12-14--14-14---/12-11-10----|
E|-12-12-x----x-10-10/12--12-12-x--------------|

E|----------------------------------------------|
B|----------------------------------------------|
G|----------------------------------------------|
D|---------12---------------------12------------|
A|-14-14---10---12-12-14--14-14---10---12-14-12-|
E|-12-12-x----x-10-10/12--12-12-x----x-10/12-10-|

E|---------------------------------------------|
B|---------------------------------------------|
G|---------------------------------------------|
D|---------12----------------------14-13-12----|
A|-14-14---10---12-12-14--14-14---/12-11-10----|
E|-12-12-x----x-10-10/12--12-12-x--------------|

E|---------------------------------------|
B|---------------------------------------|
G|---------------------------------------|
D|---------------------------------------|
A|-7--------------7----------------------|
E|----7--6--7--0-----7--6--5--3--0-------|

1:02

E|----------------------------------------------|
B|----------------------------------------------|
G|----------------------------------------------|
D|---------12---------------------12------------|
A|-14-14---10---12-12-14--14-14---10---12-14-12-|
E|-12-12-x----x-10-10/12--12-12-x----x-10/12-10-|

E|---------------------------------------------|
B|---------------------------------------------|
G|---------------------------------------------|
D|---------12----------------------14-13-12----|
A|-14-14---10---12-12-14--14-14---/12-11-10----|
E|-12-12-x----x-10-10/12--12-12-x--------------|

E|----------------------------------------------|
B|----------------------------------------------|
G|----------------------------------------------|
D|---------12---------------------12------------|
A|-14-14---10---12-12-14--14-14---10---12-14-12-|
E|-12-12-x----x-10-10/12--12-12-x----x-10/12-10-|

E|---------------------------------------------|
B|---------------------------------------------|
G|---------------------------------------------|
D|---------12----------------------14-13-12----|
A|-14-14---10---12-12-14--14-14---/12-11-10----|
E|-12-12-x----x-10-10/12--12-12-x--------------|

E|----------------------------------------------|
B|----------------------------------------------|
G|----------------------------------------------|
D|---------12---------------------12------------|
A|-14-14---10---12-12-14--14-14---10---12-14-12-|
E|-12-12-x----x-10-10/12--12-12-x----x-10/12-10-|

E|---------------------------------------------|
B|---------------------------------------------|
G|---------------------------------------------|
D|---------12----------------------14-13-12----|
A|-14-14---10---12-12-14--14-14---/12-11-10----|
E|-12-12-x----x-10-10/12--12-12-x--------------|

E|----------------------------------------------|
B|----------------------------------------------|
G|----------------------------------------------|
D|---------12---------------------12------------|
A|-14-14---10---12-12-14--14-14---10---12-14-12-|
E|-12-12-x----x-10-10/12--12-12-x----x-10/12-10-|

E|---------------------------------------------|
B|---------------------------------------------|
G|---------------------------------------------|
D|---------12----------------------14-13-12----|
A|-14-14---10---12-12-14--14-14---/12-11-10----|
E|-12-12-x----x-10-10/12--12-12-x--------------|

E|----------------------------------------------|
B|----------------------------------------------|
G|----------------------------------------------|
D|---------12---------------------12------------|
A|-14-14---10---12-12-14--14-14---10---12-14-12-|
E|-12-12-x----x-10-10/12--12-12-x----x-10/12-10-|

E|---------------------------------------------|
B|---------------------------------------------|
G|---------------------------------------------|
D|---------12----------------------14-13-12----|
A|-14-14---10---12-12-14--14-14---/12-11-10----|
E|-12-12-x----x-10-10/12--12-12-x--------------|

1:47

E|-----------------------------------------------------------------------|
B|------0---0---0--------0---0---0---------------------------0---0---0---|
G|----0---0---0---0----0---0---0---0------11--11--11-------0---0---0---0-|
D|------------------11------------------12--12--12--12-------------------|
A|-14----------------9---------------12----------------14----------------|
E|-12--------------------------------10----------------12----------------|

E|--------------------------------------------------------0----|
B|------0---0---0--------0---0---0------------------------0----|
G|----0---0---0---0----0---0---0---0------11--11----------0----|
D|------------------11------------------12--12--12-------14----|
A|-14----------------9---------------12-----------12-10--14----|
E|-12--------------------------------10------------------12----|

2:07

E|---------------------------_---------------------------------------|
B|--------------------------/ \--------------------------------------|
G|-----5---7---5------5----8-7-5-7-5------5---7---5------5------5----|
D|-----5---7---5------5----8\7-5-7-5------5---7---5------5------5----|
A|-7-7-----------7--7---7-------------7-7-----------7--7---7--7---7--|
E|-5-5---5---5---5--5---5-------------5-5---5---5---5--5---5--5---5--|

E|---------------------------_---------------------------------------|
B|--------------------------/ \--------------------------------------|
G|-----5---7---5------5----8-7-5-7-5------5---7---5------5------5----|
D|-----5---7---5------5----8\7-5-7-5------5---7---5------5------5----|
A|-7-7-----------7--7---7-------------7-7-----------7--7---7--7---7--|
E|-5-5---5---5---5--5---5-------------5-5---5---5---5--5---5--5---5--|

E|---------------------------_---------------------------------------|
B|--------------------------/ \--------------------------------------|
G|-----5---7---5------5----8-7-5-7-5------5---7---5------5------5----|
D|-----5---7---5------5----8\7-5-7-5------5---7---5------5------5----|
A|-7-7-----------7--7---7-------------7-7-----------7--7---7--7---7--|
E|-5-5---5---5---5--5---5-------------5-5---5---5---5--5---5--5---5--|

2:34

E|-------------------------------------------------------------------------|
B|-------------------------------------------------------------------------|
G|----------------7-9-----------9-8-7----------------7-9-----------7-12-9--|
D|----------------7-9-----------9-8-7----------------7-9-----------7-12-9--|
A|----------------5/7-----------7-6-5----------------5/7-----------5/10-7--|
E|-0-0-3~-0-5~-0-------0-0-3~-0--------0-0-3~-0-5~-0------0-0-3~-0---------|

E|-------------------------------------------------------------------------|
B|-------------------------------------------------------------------------|
G|----------------7-9-----------9-8-7----------------7-9-----------7-12-9--|
D|----------------7-9-----------9-8-7----------------7-9-----------7-12-9--|
A|----------------5/7-----------7-6-5----------------5/7-----------5/10-7--|
E|-0-0-3~-0-5~-0-------0-0-3~-0--------0-0-3~-0-5~-0------0-0-3~-0---------|

2:51
   ____                    __
E|---)--|-------------------/  \----------------|
B|-12--12---------10--13--10-13-10----10--------|
G|-15--15--14~~--------------------12----13~~~~-|
D|----------------------------------------------|
A|----------------------------------------------|
E|----------------------------------------------|
                  |   |
2:55

E|-----------------------------------------------|
B|-tr~~~~~~~~~~~~~~~~~~~~~~~~~~~~~~~-------------|
G|--9-12-----------------------------------------|
D|-----------------------------------11----------|
A|--------------------------------------12~~~~---|
E|-----------------------------------------------|

3:00

E|-----------______-------------|
B|-----------)-----(------------|
G|------5---7---------5---------|
D|-\5~~---7-------------7~~~----|
A|------------------------------|
E|------------------------------|


3:04
        __             _
E|-------/  \--8--------/ \-----------------_------------------------|
B|-10---8-10-8---10-7--5-7-5---5--)--------/ \-----------------------|
G|---------------------------7---5-----7--5-7-5----------------------|
D|----------------------------------7-----------7-5------------------|
A|--------------------------------------------------7-5-3---3-5-3~---|
E|--------------------------------------------------------5--------5-|
   |               |                  |

3:08

E|----------------------------------------------|
B|----------------------------------------------|
G|----------------------------------------------|
D|---------12---------------------12------------|
A|-14-14---10---12-12-14--14-14---10---12-14-12-|
E|-12-12-x----x-10-10/12--12-12-x----x-10/12-10-|

E|---------------------------------------------|
B|---------------------------------------------|
G|---------------------------------------------|
D|---------12----------------------14-13-12----|
A|-14-14---10---12-12-14--14-14---/12-11-10----|
E|-12-12-x----x-10-10/12--12-12-x--------------|

E|----------------------------------------------|
B|----------------------------------------------|
G|----------------------------------------------|
D|---------12---------------------12------------|
A|-14-14---10---12-12-14--14-14---10---12-14-12-|
E|-12-12-x----x-10-10/12--12-12-x----x-10/12-10-|

E|---------------------------------------------|
B|---------------------------------------------|
G|---------------------------------------------|
D|---------12----------------------14-13-12----|
A|-14-14---10---12-12-14--14-14---/12-11-10----|
E|-12-12-x----x-10-10/12--12-12-x--------------|

3:35

E|-----------------------------------------------------------------------|
B|------0---0---0--------0---0---0---------------------------0---0---0---|
G|----0---0---0---0----0---0---0---0------11--11--11-------0---0---0---0-|
D|------------------11------------------12--12--12--12-------------------|
A|-14----------------9---------------12----------------14----------------|
E|-12--------------------------------10----------------12----------------|

E|-----------------------------------------------------------------------|
B|------0---0---0--------0---0---0---------------------------0---0---0---|
G|----0---0---0---0----0---0---0---0------11--11--11-------0---0---0---0-|
D|------------------11------------------12--12--12--12-------------------|
A|-14----------------9---------------12----------------14----------------|
E|-12--------------------------------10----------------12----------------|

E|-----------------------------------------------------------------------|
B|------0---0---0--------0---0---0---------------------------0---0---0---|
G|----0---0---0---0----0---0---0---0------11--11--11-------0---0---0---0-|
D|------------------11------------------12--12--12--12-------------------|
A|-14----------------9---------------12----------------14----------------|
E|-12--------------------------------10----------------12----------------|

E|------------------------------------------------------0---|
B|------0---0---0--------0---0---0----------------------0---|
G|----0---0---0---0----0---0---0---0------11--11--11----0---|
D|------------------11------------------12--12--12--12-14---|
A|-14----------------9---------------12----------------14---|
E|-12--------------------------------10----------------12---|

4:13


E|--------)-------------------------------------------------------|
B|------10------10~~~~~~~~\---------10-8--------------------------|
G|-9-12----------------------------------9--9~~~~~~~~~~~~~--------|
D|----------------------------------------------------------------|
A|----------------------------------------------------------------|
E|----------------------------------------------------------------|
         |                             |


4:22

E|------------------------------------------------------------------|
B|-8--8~~~~---^----8--------------------_---------------------------|
G|-----------9-7-9---9~~~~~------------/ \--------------------------|
D|------------------------------------5-7-5-7--7~~---7--5-7-5-------|
A|------------------------------------------------------------7~~\--|
E|------------------------------------------------------------------|
  |                                        |

4:3
   __________
   )  |  |  |           )(
E|-17--17-17-17-17~~~~--17---15----17-15------)---)~~~-----|
B|------------------------------17-------17-18--18---------|
G|---------------------------------------------------------|
D|---------------------------------------------------------|
A|---------------------------------------------------------|
E|---------------------------------------------------------|

4:36
                ~~~~~~~~~
E|-15-----15------)------|-(---------------|
B|-----17----17-15------15---12----12------|
G|------------------------------14----12---|
D|-----------------------------------------|
A|-----------------------------------------|
E|-----------------------------------------|
   |

4:40

   )(                          ______
E|-15---12-15-12----12---)~~~~~--)--|-(-------------------|
B|---------------15----15------15--15---12--15--12--------|
G|-------------------------------------------------12~~---|
D|--------------------------------------------------------|
A|--------------------------------------------------------|
E|--------------------------------------------------------|

4:45

E|-----------------------------------------------------------------|
B|------------------------------)(^--------------------------------|
G|-/14-12~~~------------------14---12-14-12-14-12------------------|
D|-----------/14-12~~------------------------------14-12-----------|
A|---------------------12--------------------------------14-13-12--|
E|-----------------------------------------------------------------|
Acordes para:
    Composição: Black SabbathColaboração e revisão:
    • Cesar Winters

    0 comentários

      mostrar mais comentários

      Conseguiu tocar?

      1tocaram1ainda não

      Grave um vídeo tocando Loner e mande pra gente!

      00:00 / 00:00
      outros vídeos desta música
      repetirqualidadeautomática
      Outro vídeos desta música
        00:00 / 00:00
        automática
        OK