Cifra Club

Aprenda

Planet Caravan

Black Sabbath

Cifra: Principal (violão e guitarra)
Tom: C
Introdução:

|------------0--0------------------------------|
|.-----------0--0-----------0---------------.--|
|------------0--0---------0------0-------------|
|.--------4--5--4-------4------4---7--------.--|
|------7------------7-5------5-----------------|
|----0-----------------------------------------|


We sail, through endless skies
Stars shine like eyes
The black night sighs
The moon, in silver dreams
Pours down in beams
Light of the night
The earth, a purple blaze
Of sapphire haze
In orbital ways

While down, below the trees
bathed in cool breeze
Silver starlight
Breaks down from night  !!!!!!!!!4" slide in 1st measure]
 % : eighth-note rest
 r : "return" of bend
 ====: hold tone thru count (legato arpeggio)
 ^^^^: occasional variations at this point (listen to recording)
  
 ________
 LEAD . . .

                                                                      gliss
||-------------------------------------------------------~--------------~----|
||------------------------------------------1/4------------------------------|
||--------------------------h-p-p----------b---------------------------------|
||--4----------------5-7----7-8-7-5---7-5---5--------p-----------54----------|
||-----5--7----/7-----------------------------------7-5---7--5/7------5--7---|
||---------------------------------------------------------------------------|

                                               
|---------------------------------~-------------------------p----------------|
|--------------------------------------------------------7-8-7--5-7----------|
|-------------------------------------------------------x-------------76-----|
|---------5-7--87---87--87---5----5-------5-4---------x----------------------|
|55-5---------------------------7------7-------7------^----------------------|
|------------------------------------------------fluiddownstroke-------------|

|------------~--------------p--------------p-----------------p---------------|
|--p--------------------7--8-7----10---7--8-7--7---10----7--8-7-----7---7----|
|-7-6--7--------------x---------7----------------------7---------9-----------|
|-----------74------x--------------------------------------------------------|
|-------------------^--------------------------------------------------------|
|-----------------downstroke-------------------------------------------------|


|----p-------------------------------------------------~---------~-----------|
|---8-75--7--p-------p-------------------------------------------------------|
|------------7-6--7--7-64--6---p----p--------p-------------------------------|
|-----------------------------7-5--7-5---4--5-4---4-----------/9-5-----------|
|------------------------------------------------5----5/7-(7)----------------|
|----------------------------------------------------------------------------|

                                                     
                                                     full
|-----------------------------------------------------b----~-----------------|
|-----------------------------------------------------8--------------------11|
|------------------h-p-p-------------------------7-9-------9---(9)/(7)--9----|
|--5--7---7/8--7--7-8-7-5---7-5----------5--7/8------------------------------|
|-------------------------------7--(7)---------------------------------------|
|----------------------------------------------------------------------------|

     
     1/2                                                full
|---b---R--p---------------h--p--------------------------b--R~---------------|
|--10--(10)-8---10----8--10-11-10----(8)-10-----8-10-10--8-(8)--(8)----------|
|-------------9----9--------------------9-----------------------------/12----|
|----------------------------------------------------------------------------|
|----------------------------------------------------------------------------|
|----------------------------------------------------------------------------|

                                                         
                                                         full
|-------p------------------p------------------p-----------b~--R--------12----|
|-15--15-14----------14--14-13---------13---13-11--------10--(10)----x-------|
|------------15--12------------14--11-------------13-10-----------x----------|
|----------------------------------------------------------------------------|
|----------------------------------------------------------------------------|
|---------------------------------------------------------------downstroke---|

                 
                 b(full)     b(full) R                      full
|----14-15-17---17--~-------17------(17)---1514---p---15---b-----~-----------|
|------------------------------------------------17-15-----15----(15)--------|
|----------------------------------------------------------------------------|
|----------------------------------------------------------------------------|
|----------------------------------------------------------------------------|
|----------------------------------------------------------------------------|

        1/4
|--------b---R--p---------~----------------------h-p-h-p-----------~---------|
|-------15--(15)-12----------------------h------7-8-7-8-7---9----7/9---------|
|-----x----------------15-14---(14)-----6-76---------------------------------|
|---x------------------------------------------------------------------------|
|----------------------------------------------------------------------------|
|-downstroke-----------------------------------------------------------------|

                                            
                                            12
|----------------------------------------------------------------------------|
|-----h-p--------------------------------------------------------------------|
|----6-7-6-------6-------p--------4------------------------------------------|
|-------------9-----7---5-4--5/7-----5/75------------------------------------|
|--------------------------------------------b---R-----5----/11--------------|
|--------------------------------------------5--(5)--3-----------------------|


|--------------------------------------------------------------12----p-------|
|----------------------h-------12-----12----12----p--p--h--h-------15-12-----|
|-----------12--14---12-14--15----15-----15-----15-14-12-14-15---------------|
|-12--14--14--14--14---------------------------------------------------------|
|---14--14-------------------------------------------------------------------|
|----------------------------------------------------------------------------|

           
           full     full      2 steps    2 steps                    h  h
|-----------b---12---b---12---b------12----b-------12---~---------17-18-19---|
|--p--p----15-------15--------15----------15-----------15------x-------------|
|15-14-12----------------------------------------------------x---------------|
|----------------------------------------------------------------------------|
|----------------------------------------------------------------------------|
|----------------------------------------------------------------------------|


   p  p                              p
|15-14-12---~-----------------17---16-15-----17----------------------------~~|
|----------15--------------x--------------17----1715---12--15----p-----------|
|------------------------x--------------------------------------15-12---14---|
|---------------------------------------------------------------------14--14-|
|----------------------------------------------------------------------------|
|----------------------------------------------------------------------------|

       
       b 1/2  R  p                 full                  1/2  
|-----14-----(14)-12---15-----12---b---------p-----------b----R--p-----------|
|---x---------------------15-------15----(15)-12-----12-14---(14)-12---------|
|-x-----------------------------------------------15-------------------------|
|----------------------------------------------------------------------------|
|----------------------------------------------------------------------------|
|----------------------------------------------------------------------------|

    
    1/4
|------------------~----------~-----------~----------------------------------|
|----b--R----p-----------------------------------p--------p------------------|
|---14--(14)--12--14--------(14)------11-------14-12----12-11---11-----------|
|---------------------------------14------12---------------------------------|
|----------------------------------------------------------------------------|
|----------------------------------------------------------------------------|


|----------------------------------------------------------------------------|
|----------------------------------------------------------------------------|
|----p------------p----------------------------------------------------------|
|--14-1211-----12-11-------p------------------------------------12-13-14----|
|-------------------------14-1210-----------9--10---------12-14-------------|
|---------------------------------------------------10/12-------------------|

         
         1/2                1/2                                 b full  R
|----------------------------------~----------------------------17-----(17)--|
|---------b---R---------------b---R---------------------------x--------------|
|-12-14--14--(14)---12--14---14--(14)-----12----14----------x----------------|
|-----------------------------------------------------14---------------------|
|----------------------------------------------------------------------------|
|----------------------------------------------------------------------------|

              b full R                 b full R  p         b 1 1/2 steps
|--15---17---17-----(17)----15----17---17----(17)--15--17------------------|-|
|----------------------------------------------------------17--------------|-|
|--------------------------------------------------------------------------|-|
|--------------------------------------------------------------------------|-|
|--------------------------------------------------------------------------|-|
|--------------------------------------------------------------------------|-|
Composição de Bill Ward / Geezer Butler / Ozzy Osbourne / Tony Iommi
Colaboração e revisão:
  • Egberto V.
39.671 exibições
    • ½ Tom
    • A
    • Bb
    • B
    • C
    • Db
    • D
    • Eb
    • E
    • F
    • F#
    • G
    • Ab
  • Adicionar à lista

    0 comentários

    Mostrar mais comentários

    Conseguiu tocar?

    8 Tocaram 0 Ainda não

    Grave um vídeo tocando Planet Caravan e mande pra gente!

    00:00 / 00:00
    outros vídeos desta música
    repetir qualidade Automático
    Outros vídeos desta música
    00:00 / 00:00
    Automático

    Cifra Club Pro

    Aproveite o Cifra Club com benefícios exclusivos e sem anúncios
    7 dias grátis
    Cifra Club Pro
    Aproveite o Cifra Club com benefícios exclusivos e sem anúncios
    7 dias grátis
    OK