Cifra Club

Aprenda

Snowblind

Black Sabbath

Cifra: Principal (violão e guitarra)
Tom: B
Intro
|---------------------------------------------------
|---------------------------------------------------
|-6--8--9---------------------6-------------8-------
|-6--8--9---9--11-----------7---7---------9----9----
|-4--6--7---9--11-------7---------7---9----------9--
|-----------7--9--9-x-5---5---------7---7-----------

Verse
|-------------------------
|-------------------------
|-6-x-6-x-6--x--4-4-------
|-6-x-6-x-6--x--4-4-----2-
|-4-x-4-x-4--x--2-2-0h2---
|-------------------------

Bridge
|----------------------------
|----------------------------
|-6-4-2---2------2-------4---
|-6-4-2-4-2----2---2---4---4-
|-4-2-0-4-0--0-------2-------
|-------2--------------------
                                                                              
Middle 8 (and solo backing)
|---------------------------------------------------------------
|---------------------------------------------------------------
|-------------------------------------------6-------------6-----
|---------9-11----------9-------8---------7---7---------7---7---
|---11-11------11-----9---9---8---8---7---------7---7---------7-
|-9---------------9-7-------6-------5---5---------4---4---------

Solo
|--------------------------------------------------------------------------
|-9-12-12^-12^-12^-12^-12--------------------------------------------------
|-------------------------13-12-11-10-9------------------------------------
|---------------------------------------------------4-6-5^-5^-5^-2-4-------
|----------------------------------------9^-7---4-7------------------4--2--
|--------------------------------------------------------------------------

-----------------------------------------------------------------------------
-----------------------------------------------------------------------------
-----------------------------------------------------------------------------
---2------2--------2-4-5^---5^-2--5^-2-4--------2------2--------2-4-5^--5^-2-
-4---4--4---4--2-4-----------------------4--2-4---4--4---4--2-4--------------
-----------------------------------------------------------------------------

---------------------------------12^--12-9-9---9---------------|
-12^-12^-12^-12^-14-12-9-------------------------12-9-9-7-5----|
-------------------------12-11-9----------------------------6/-|
---------------------------------------------------------------|
---------------------------------------------------------------|
---------------------------------------------------------------|
   
3:28 "don't you think I know what I'm doing....."
|---------------------------------
|---------------------------------
|---------------------------------
|-6-6-----6-6-----6-6-----4-4-4-4-
|-4-4-7-7-4-4-7-7-4-4-7-7-2-2-2-2-
|---------------------------------

any questions? andrewbiles@hotmail.com
(I'm not going to work out the outro solo)
_______________________
Lyrics:

What you get and what you see
Things that don't come easily
Feeling happy in my vein
Icicles within my brain
(cocaine)

Something blowing in my head
Winds of ice, it soon will spread
Death would freeze my very soul
Makes me happy, makes me cold

My eyes are blind but I can see
The snowflakes glisten on the tree
The sun no longer sets me free
I feel there's no place freezing me

Let the winter sun shine on
Let me feel the frost of dawn
Fill my dreams with flakes of snow
Soon I'll feel the chilling glow

Don't you think I know what I'm doing
Don't tell me that it's doing me wrong
You're the one that's really a loser
This is where I feel I belong

Crystal world with winter flowers
Turns my day to frozen hours
Lying snowblind in the sun
Will my ice age ever come?
Composição de Bill Ward / Geezer Butler / Ozzy Osbourne / Tony Iommi
Colaboração e revisão:
  • igor pimenta
23.213 exibições
    • ½ Tom
    • A
    • Bb
    • B
    • C
    • Db
    • D
    • Eb
    • E
    • F
    • F#
    • G
    • Ab
  • Adicionar à lista

    0 comentários

    Mostrar mais comentários

    Conseguiu tocar?

    4 Tocaram 0 Ainda não

    Grave um vídeo tocando Snowblind e mande pra gente!

    00:00 / 00:00
    outros vídeos desta música
    repetir qualidade Automático
    Outros vídeos desta música
    00:00 / 00:00
    Automático

    Cifra Club Pro

    Aproveite o Cifra Club com benefícios exclusivos e sem anúncios
    7 dias grátis
    Cifra Club Pro
    Aproveite o Cifra Club com benefícios exclusivos e sem anúncios
    7 dias grátis
    OK