Cifra Club

Supernaut

Black Sabbath

Cifra: Principal
exibições 16.530
Tom: E
Riff A:

E|---------------------------------------------------------------|
B|---------------------------------------------------------------|
G|-----------------------------------------------p-p--------p-p--|
D|----------------------p-p------------------5---3-0--5-5-5-3-0--|
A|-5--5-5-0-3-5-5--5-5-5-3-0-3~-5--5-5-0-3-5---------------------|
E|---------------------------------------------------------------|

Riff B:

E|--------------------------|
B|--------------------------|
G|--------------------------|
D|-7\-------5--5-5---5--5-7-|
A|-5\-------3--3-3-0-3--3-5-|
E|----xxxxx-----------------|

Estrutura da Música:

Riff A (2x)
Riff B (8x)
Riff A (2x)
Riff B (8x)
Riff A (8x) (solo)
Riff B 
Riff A fade to end.

Acordes para:
    Composição: Bill Ward / Geezer Butler / Ozzy Osbourne / Tony IommiColaboração e revisão:
    • Marco Toledo

    0 comentários

      mostrar mais comentários

      Conseguiu tocar?

      4tocaram0ainda não

      Grave um vídeo tocando Supernaut e mande pra gente!

      00:00 / 00:00
      outros vídeos desta música
      repetirqualidadeautomática
      Outro vídeos desta música
        00:00 / 00:00
        automática
        OK