Cifra Club

War Pigs

Black Sabbath

Tab de baixo: Principal
Selo Cifra Club: esta cifra foi revisada para atender aos critérios oficiais da nossa Equipe de Qualidade.
[Intro]

Parte 1 de 9
G|----------------------------------------------|
D|----------------------------------------------|
A|--7------7--5-----7----7--5h7-5---5-5h7-------|
E|---------------7----------------7-------------|

Parte 2 de 9
G|----------------------------------------------|
D|-----------------------------7b9--7-5---------|
A|--5----5--5-----5----5----5------------7-5----|
E|--------------7----7------------------------7-|

Parte 3 de 9
G|-----------------------------------7h9-9-9-9-9|
D|------------------5b---------7-8-9------------|
A|--7----7--7--5--------7----7------------------|
E|----------------7-----------------------------|

Parte 4 de 9
G|----------------------------------------------|
D|-----------------------------7--5-------------|
A|--5----5--5-----5----5----5-------7--5--------|
E|--------------7----7-------------------7------|

Parte 5 de 9
G|-----------------------------------7h9-9-9-9-9|
D|------------------5b---------7-8-9------------|
A|--7----7--7--5--------7----7------------------|
E|----------------7-----------------------------|

Parte 6 de 9
G|----------------------------------------------|
D|-----------------------------7--5-------------|
A|--5----5--5-----5----5----5-------7--5--------|
E|--------------7----7-------------------7------|

Parte 7 de 9
G|---------------------------------7-7---7-7-7-7|
D|-----------------------------5h7-----7--------|
A|--7--7--7--7--7--7--7\5-5--5------------------|
E|----------------------------------------------|

Parte 8 de 9
G|-----------------7-9-----------7-5------------|
D|-----------5-7-9-------------------7-5--------|
A|--7--7--7-------------5--5--5----------7------|
E|----------------------------------------------|

Parte 9 de 9
G|----------------------------------------------|
D|----------------------------------------------|
A|--5-7----------------5-7\---------------------|
E|----------------------------------------------|

[Primeira Parte]

Parte 1 de 2
G|----------------------------------------------|
D|----------------------------------------------| (3x)
A|--5-7----------------5-7----------------------|
E|----------------------------------------------|

Parte 2 de 2
G|----------------------------------------------|
D|----------------------------------------------|
A|--5-7----------------5-7\---------------------|
E|----------------------------------------------|

[Ponte]

Parte 1 de 4
G|----------------------------------9-7---------|
D|--------------------------------9------9-7----|
A|--5-7--------10--9--8----8----7---------------|
E|----------------------------------------------|

Parte 2 de 4
G|----------------------------------------------|
D|----------------------------------------5b----|
A|--5-7\-------10--9--8----8----7--7-5----------|
E|--------------------------------------7-------|

Parte 3 de 4
G|----------------------------------9-7---------|
D|--------------------------------9------9-7----|
A|--5-7\-------10--9--8----8----7---------------|
E|----------------------------------------------|

Parte 4 de 4
G|----------------------------------------------|
D|----------------------------------------------|
A|--5-7\-------10--9--8----8----7--7-5----5-----|
E|--------------------------------------7-------|

[Riff] - 2x

Parte 1 de 2
G|----------------------------------------------|
D|--------------------------5b------------------|
A|--7-------7---7--7--7-5h7---------------------|
E|----5-6-7-------------------------------------|

Parte 2 de 2
G|----------------------------------------------|
D|----7-8-9-----------------5b------------------|
A|--7-------7---7--7--7-5h7---------------------|
E|----------------------------------------------|

[Segunda Parte] - 8x

G|------9-9-------------------------------------|
D|---------------------------5b-----------------|
A|--7-7-----7--x-7--7--7-5h7--------------------|
E|----------------------------------------------|

[Riff] - 2x

Parte 1 de 2
G|----------------------------------------------|
D|--------------------------5b------------------|
A|--7-------7---7--7--7-5h7---------------------|
E|----5-6-7-------------------------------------|

Parte 2 de 2
G|----------------------------------------------|
D|----7-8-9-----------------5b------------------|
A|--7-------7---7--7--7-5h7---------------------|
E|----------------------------------------------|

[Terceira Parte] - 8x

G|------9-9-------------------------------------|
D|---------------------------5b-----------------|
A|--7-7-----7--x-7--7--7-5h7--------------------|
E|----------------------------------------------|

[Ponte]

Parte 1 de 4
G|----------------------------------9-7---------|
D|--------------------------------9------9-7----|
A|--5-7\-------10--9--8----8----7---------------|
E|----------------------------------------------|

Parte 2 de 4
G|----------------------------------------------|
D|----------------------------------------5b----|
A|--5-7\-------10--9--8----8----7--7-5----------|
E|--------------------------------------7-------|

Parte 3 de 4
G|----------------------------------9-7---------|
D|--------------------------------9------9-7----|
A|--5-7\-------10--9--8----8----7---------------|
E|----------------------------------------------|

Parte 4 de 4
G|----------------------------------------------|
D|----------------------------------------------|
A|--5-7\-------10--9--8----8----7--7-5----5-----|
E|--------------------------------------7-------|

[Solo]

Parte 1 de 20
G|------9-9-----9-----9---9---9---9-------------|
D|----------------------------------------------| (2x)
A|--7-7-----7-----7-----7---7---7---------------|
E|----------------------------------------------|

Parte 2 de 20
G|----9---9---9---9----9---9---9---9------------|
D|----------------------------------------------|
A|--7---7---7---7----7---7---7---7--------------|
E|----------------------------------------------|

Parte 3 de 20
G|------9-9-7-7---------------------------------|
D|--------------9-9---------5---5b--------------|
A|--7-7-------------7-7-5-7---7-----------------|
E|----------------------------------------------|

Parte 4 de 20
G|-----------------------7---7-9b-9-------------|
D|----5-7b-7-5----5--7/9---9--------------------|
A|--7-----------7-------------------------------|
E|----------------------------------------------|

Parte 5 de 20
G|--7-7-----------------------------------------|
D|------9-7-5--7-7b--7-5---5---5b---------------|
A|-----------------------7---7------------------|
E|----------------------------------------------|

Parte 6 de 20
G|--------------------7---7-9-9b-9--------------|
D|---------------5--9---9-----------------------|
A|--7-5---5-7--7--------------------------------|
E|------7---------------------------------------|

Parte 7 de 20
G|--7-7-----------------------------------------|
D|------7-9-5--7b8--7-5---5---5-----------------|
A|----------------------7---7-------------------|
E|----------------------------------------------|

Parte 8 de 20
G|----------------------------------------------|
D|------------------------5b---5b---------------|
A|--5h7-7-5-7--7-7--7-5------7------------------|
E|----------------------7-----------------------|

Parte 9 de 20
G|----------------------------------------------|
D|----5-7b-7-5----5----5---5b----5--------------|
A|--7-----------7----7---7-----7----------------|
E|----------------------------------------------|

Parte 10 de 20
G|----------------------------------------------|
D|--7/9-7-5-7-5---5b--------5b------------------|
A|--------------7-----7-5-------7---------------|
E|------------------------7---------------------|

Parte 11 de 20
G|--------7----7-9b--9-7------------------------|
D|--7-8-9----9-----------9-7-9-5-7--------------|
A|----------------------------------------------|
E|----------------------------------------------|

Parte 12 de 20
G|----------------------------------------------|
D|--7b-7-5---5-------5--7-7b--7-5---------------|
A|---------7---7-5-7----------------------------|
E|----------------------------------------------|

Parte 13 de 20
G|----------------------------------------------|
D|--------------------------5b------------------|
A|--7-5---5-7--7-7------------------------------|
E|------7-----------4--5--7---------------------|

Parte 14 de 20
G|------------7-9-9-7---------------------------|
D|----5-7-8-9---------9-7-5--7-5b---------------|
A|--7-------------------------------------------|
E|----------------------------------------------|

Parte 15 de 20
G|------9-----9-----9-----9---------------------|
D|----9-----9-----9-----9-----------------------| (4x)
A|--7-----7-----7-----7-------------------------|
E|----------------------------------------------|

Parte 16 de 20
G|----------------------------------------------|
D|----------------------------------------------|
A|--7--7--7--7-7-7-7-7-7-7-7-7-7----------------|
E|----------------------------------------------|

Parte 17 de 20
G|--------------------5-7-5h7-7-7---------------|
D|------------------7---------------------------|
A|--7\5-5--5--5-5-5-----------------------------|
E|----------------------------------------------|

Parte 18 de 20
G|-------------------7-9-9-9-9------------------|
D|------------5-7--9----------------------------|
A|--7--7-7-7------------------------------------|
E|----------------------------------------------|

Parte 19 de 20
G|------------------7-5-------------------------|
D|----------------------7-5---------------------|
A|--5--5--5--5-5--5---------7-------------------|
E|----------------------------------------------|

Parte 20 de 20
G|----------------------------------------------|
D|----------------------------------------------|
A|--5-7----------------5-7\---------------------|
E|----------------------------------------------|

[Quarta Parte]

Parte 1 de 2
G|----------------------------------------------|
D|----------------------------------------------| (3x)
A|--5-7----------------5-7----------------------|
E|----------------------------------------------|

Parte 2 de 2
G|----------------------------------------------|
D|----------------------------------------------|
A|--5-7----------------5-7\---------------------|
E|----------------------------------------------|

[Ponte]

Parte 1 de 4
G|----------------------------------9-7---------|
D|--------------------------------9------9-7\---|
A|--5-7--------10--9--8----8----7---------------|
E|----------------------------------------------|

Parte 2 de 4
G|----------------------------------------------|
D|-----------------------------------------5b---|
A|--5-7\-------10--9--8----8----7-7-7-5--7------|
E|----------------------------------------------|

Parte 3 de 4
G|----------------------------------9-7---------|
D|--------------------------------9------9-7\---|
A|--5-7\-------10--9--8----8----7---------------|
E|----------------------------------------------|

Parte 4 de 4
G|----------------------------------------------|
D|----------------------------------------------|
A|--5-7\-------10--9--8----8----7--7-5----5-----|
E|--------------------------------------7-------|

[Passagem]

Parte 1 de 4
G|----------------------------------------------|
D|----------------------------------------------|
A|--7----------------7-------5-----5---5---5----|
E|-----------------------7-------7---7---7------|

Parte 2 de 4
G|----------------------------------------------|
D|------5b--------5b---5b---5b------------------|
A|--7-------7---7----7----7---------------------|
E|----------------------------------------------|

Parte 3 de 4
G|----------------------------------------------|
D|----------------------------------------------|
A|--7-------5-----5---5---5---------------------|
E|------7-------7---7---7-----------------------|

Parte 4 de 4
G|----------------------------------------------|
D|------5b--------5b---5b---5b------------------|
A|--7-------7---7----7----7---------------------|
E|----------------------------------------------|

[Ponte 2]

Parte 1 de 6
G|---------9------------9-9-9-------------------|
D|----------------------------------------------|
A|--7-7--7----7-7--7--7-------------------------|
E|----------------------------------------------|

Parte 2 de 6
G|---------9------------9--9--------------------|
D|----------------------------------------------| (3x)
A|--7-7--7----7-7--7--7-------------------------|
E|----------------------------------------------|

Parte 3 de 6
G|---------7----------------5-------------------|
D|----------------------5h7---------------------| (2x)
A|--5-5--5----5-5--5--5-------------------------|
E|----------------------------------------------|

Parte 4 de 6
G|---------5----------------3-------------------|
D|----------------------3h5---------------------|
A|--3-3--3----3-3--3--3-------------------------|
E|----------------------------------------------|

Parte 5 de 6
G|---------5-------5-3-------3-5----------------|
D|---------------------5-3-5--------------------|
A|--3-3--3----3-3-------------------------------|
E|----------------------------------------------|

Parte 6 de 6
G|----------------------------------------------|
D|----------------------------------------------|
A|--2----2---2---3--3--3--2----2---2---2--2--5--|
E|----------------------------------------------|

[Tema]

Parte 1 de 15
G|----------------------------------------------|
D|-----------------7-5---------------4-5--4-----|
A|-7----7----7--7------7--5----5---5---------5--|
E|---------------------------------------------7|

Parte 2 de 15
G|----------------------------------------------|
D|-------------7-5---7-5---5-7------------------|
A|--7----7---7-----7-----7----------------------|
E|----------------------------------------------|

Parte 3 de 15
G|----------------------------------------------|
D|-------------4-5--4---------------------------|
A|--5----5---5---------5------------------------|
E|-----------------------7----------------------|

Parte 4 de 15
G|----------------7-9-9-9-9-9-9-----------------|
D|----------5-7-9-------------------------------|
A|--7----7--------------------------------------|
E|----------------------------------------------|

Parte 5 de 15
G|-------------7-5------------------------------|
D|-----------7-----7-5--------------------------|
A|--5----5--------------5-----------------------|
E|------------------------7---------------------|

Parte 6 de 15
G|----------------------------------------------|
D|-------------7-5---7-5---5-7------------------|
A|--7----7---7-----7-----7----------------------|
E|----------------------------------------------|

Parte 7 de 15
G|----------------------------------------------|
D|-------------5-4---5-4---4-5------------------|
A|--5----5---5-----5-----5----------------------|
E|----------------------------------------------|

Parte 8 de 15
G|---------------7h9-9-9-9--9-9-9-9-------------|
D|--------5--7/9--------------------------------|
A|--7--7----------------------------------------|
E|----------------------------------------------|

Parte 9 de 15
G|-------------7--5-----------------------------|
D|-----------7------7-5-------------------------|
A|--5--5--5--------------7-5--------------------|
E|----------------------------------------------|

Parte 10 de 15
G|----------------------------------------------|
D|--------5--7-7b--7-5---5h7-5h7----------------|
A|--7--7---------------7------------------------|
E|----------------------------------------------|

Parte 11 de 15
G|----------------------------------------------|
D|-------------4-5--4---------------------------|
A|--5----5---5---------5------------------------|
E|-----------------------7----------------------|

Parte 12 de 15
G|----------------7-9-9-9-9-9-9-----------------|
D|----------5/7-9-------------------------------|
A|--7----7--------------------------------------|
E|----------------------------------------------|

Parte 13 de 15
G|------------7--5------------------------------|
D|----------7------7-5--------------------------|
A|--5----5--------------7-5---------------------|
E|----------------------------------------------|

Parte 14 de 15
G|----------------------------------------------|
D|--------7-5---7-5---7-5---7-5-----------------|
A|--7--7------7-----7-----7-----7---------------|
E|----------------------------------------------|

Parte 15 de 15
G|----------------------------------------------|
D|-------------4-5--4---------------------------|
A|--5----5---5---------5------------------------|
E|-----------------------7----------------------|

[Tema 2]

Parte 1 de 7
G|----------------------------------------------|
D|-----------------7-5---------------4-5--4-----|
A|-7----7----7--7------7--5----5---5---------5--|
E|---------------------------------------------7|

Parte 2 de 7
G|----------------7-9-9-9-9-9-9-----------------|
D|----------5-7/9-------------------------------|
A|--7----7--------------------------------------|
E|----------------------------------------------|

Parte 3 de 7
G|-------------7-5------------------------------|
D|-----------7-----7-5--------------------------|
A|--5----5--------------7-5---------------------|
E|----------------------------------------------|

Parte 4 de 7
G|----------------------------------------------|
D|-------------7-5---7-5---5-7------------------|
A|--7----7---7-----7-----7----------------------|
E|----------------------------------------------|

Parte 5 de 7
G|----------------------------------------------|
D|-------------4-5--4---------------------------|
A|--5----5---5---------5------------------------|
E|-----------------------7----------------------|

Parte 6 de 7
G|------------7-9-9-9-9--9-9-9-9----------------|
D|----------9-----------------------------------|
A|--7----7--------------------------------------|
E|----------------------------------------------|

Parte 7 de 7
G|-------------7-5------------------------------|
D|-----------7-----7-5--------------------------|
A|--5----5--------------7-5---------------------|
E|----------------------------------------------|

[Final]

Parte 1 de 3
G|----------------------------------------------|
D|----------------------------------------------|
A|--7--------5--7\--------5---------------------|
E|----------------------------------------------|

Parte 2 de 3
G|----------------------------------------------|
D|----------------------------------------------|
A|--7-7--7-7--7-7--7-7--7--7--------------------|
E|----------------------------------------------|

Parte 3 de 3
G|-----------------------15--17\----------------|
D|----------------------------------------------|
A|--7/...---------------------------------------|
E|----------------------------------------------|
Outros vídeos desta música
    45.267 exibições

    Afinação da cifra

    Afinador online

    0 comentários

    Ver todos os comentários

    Entre para o Cifra Club PRO

    Tenha acesso a benefícios exclusivos no App e no Site

    • Chega de anúncios

    • Badges exclusivas

    • Mais recursos no app do Afinador

    • Atendimento Prioritário

    • Aumente seu limite de lista

    • Ajude a produzir mais conteúdo

    Capítulos
    • Apresentação
    • Intro
    • Primeira Parte
    • Ponte
    • Riff
    • Segunda Parte
    • Riff
    • Terceira Parte
    • Ponte
    • Solo
    • Quarta Parte
    • Ponte
    • Passagem
    • Ponte 2
    • Tema 1
    • Tema 2
    • Final
    • Encerramento

    Cifra Club Pro

    Aproveite o Cifra Club com benefícios exclusivos e sem anúncios
    Cifra Club Pro
    Aproveite o Cifra Club com benefícios exclusivos e sem anúncios
    Ops (: Contenido disponible sólo en portugués.
    OK