Cifra Club

Aprenda

Goodbye Agony

Black Veil Brides

Cifra: Principal (violão e guitarra)
Tom: G (forma dos acordes no tom de A) Afinação: D G C F A D
Intro / Verso:

         (2x)                                       
|-------------------------------------------------------------------------------------|                                                                
|--------------2-3--------------2-------------------------2-3-------------------------|
|------4 ---------------------4---4------------------4--------------------3------4/6~-|
|-------------------------------------------------------------------------------------|
|--2----------------------------------------------------------------------------------|
|----------------------5--------------------2----------------------4------------------|

|-------------------------------------------------------------------------------------|                                                                
|---------------------------0-3-------------------3-0---------------------------------|
|-----------------4 -----------------------4------------------4-------------3----4/6~-|
|-------------------------------------------------------------------------------------|
|--2------------------------------------------------------------2-3-------------------|
|---------------------------------5---------------6------------------4----------------|

|-------------------------------------------------------------------------------------|                                                              
|--------------------------0-3--------------------0-3-------------------0-3-0---------|
|-----------------4-----------------------4------------------------4------------------|
|-------------------------------------------------------------------------------------|
|-------------------------------------------------------------------------------------|
|-----------5-----------------------5-------------------------2-----------------------|

Refrão 2x:

|---------------------------------------------------------------------------------14--|
|--12--------12-14--15~-----------12--14--15--15br-15~-15br--14~--------14--12-11--12~|
|-------11----------------------11----------------------------------------------------|
|-------------------------------------------------------------------------------------| 
|-------------------------------------------------------------------------------------|
|-------------------------------------------------------------------------------------|

ReIntro:

|--------------------------------------------------------------------------------------| 
|--12~------------------------------------11--12--14--12~------------------------------|
|---------11--12~--11--12---8/12-------------------------------------------------------|
|--------------------------------------------------------------------------------------|
|--------------------------------------------------------------------------------------|
|--------------------------------------------------------------------------------------|
Composição de Andy Biersack
Colaboração e revisão:
  • Fernando
  • eros
8.416 exibições
    • ½ Tom
    • A
    • Bb
    • B
    • C
    • Db
    • D
    • Eb
    • E
    • F
    • F#
    • G
    • Ab
  • Adicionar à lista

    0 comentários

    Mostrar mais comentários

    Conseguiu tocar?

    0 Tocaram 3 Ainda não

    Grave um vídeo tocando Goodbye Agony e mande pra gente!

    00:00 / 00:00
    outros vídeos desta música
    repetir qualidade Automático
    Outros vídeos desta música
    00:00 / 00:00
    Automático

    Cifra Club Pro

    Aproveite o Cifra Club com benefícios exclusivos e sem anúncios
    Cifra Club Pro
    Aproveite o Cifra Club com benefícios exclusivos e sem anúncios
    OK