Cifra Club

Aprenda

Heavens Calling

Black Veil Brides

Cifra: Principal (violão e guitarra)
tom: G
Intro 1:

E|----------------------------------------------------|
B|----------------------------------------------------|
G|----------------------------------------------------|
D|----------------------------------------------------|
A|-----5-8-5--------------------5-8-5-----------------|
E|-0-7-------7-0-7---------0-8--------8-0-8-----------|

E|----------------------------------------------------|
B|----------------------------------------------------|
G|------------------------------6-(b9)6---------------|
D|----------------------------5-------5---5-----------|
A|-----5-8-5----------------7-----------7-------------|
E|-2-5-------5-2-5------------------------------------|
   ***************          . .       . . .
E|----------------------------------------------------|
B|----------------------------------------------------|
G|--------(b9)12-(b9)---------------------------------|
D|-----11--------11----11---------------- ------------|
A|--10--------------10--------------------------------|
E|----------------------------------------------------|
   .  .         .  .  .
E|----------------------------------------------------|
B|----------------------------------------------------|
G|------------------------------6-(b9)6---------------|
D|----------------------------5-------5---5-----------|
A|-----5-8-5----------------7-----------7-------------|
E|-2-5-------5-2-5------------------------------------|
                           . .       . . .
E|----------------------------------------------------|
B|--------------------------------5-------------------|
G|------------------------------6---6-----------------|
D|-----0-3-0------------------5-------5---5-----------|
A|--------------------------7-----------7-------------|
E|-2-5-------5-2-5------------------------------------|
                           . .       . . .

Intro 2:
E|----------------------------------------------------|
B|----------------------------------------------------|
G|----------------------------------------------------|
D|----------------------------------------------------|
A|-----5-8-5--------------------5-8-5-----------------|
E|-0-7-------7-0-7---------0-8--------8-0-8-----------|

E|----------------------------------------------------|
B|-------------------5---3-5-3---2--0---3-2-0---------|
G|---------------------------------------------3------|
D|----------------------------------------------------|
A|-----5-8-5------------------------------------------|
E|-2-5-------5-2-5------------------------------------|
                        h p h
E|--8-6-5---------------------------------------------|
B|----------8-6-5-------------------------------------|
G|------------------(b9)7-5---------------------------|
D|------------------------8-7-5-----------------------|
A|----------------------------------------------------|
E|----------------------------------------------------|

Riff:
E|----------------------------------------------------|
B|--------10-11--10-11-----10-11-10---15-14-15--------|
G|--10--12-------------12-----------------------------|
D|----------------------------------------------------|
A|----------------------------------------------------|
E|----------------------------------------------------|

E|-12-13-18--17-18-15--17-18----17-15-13--12-13-15--17-15-13--12-13-15--13~-|
B|--------------------------------------------------------------------------|
G|--------------------------------------------------------------------------|
D|--------------------------------------------------------------------------|
A|--------------------------------------------------------------------------|
E|--------------------------------------------------------------------------|
                               T  p  p   p  h  h   T  p  p   p  h  h

Verso 2x:
E|--------------------------------------------------------------------------|
B|--------------------------------------------------------------------------|
G|----------------------------------3---------------------------------------|
D|-0--------------------------------3---------------------------------------|
A|-0--------------------------------1-1-1-1-1-1-1-1-1-1-1-------------------|
E|-0-0-0-0-0-0-0-0-0-0-0----------------------------------------------------|
    . . . . . . . . . .              . . . . . . . . . .
E|-----------------------------------------------------------------|
B|-----------------------------------------------------------------|
G|-----------------------------------------------------------------|
D|-5---------------------------------------------------------------|
A|-5---------------------5-----------4-----------------------------|
E|-5-5-5-5-7-5-8-7---3-3---3-----2-2---2---------------------------|
    . . .   .       . .   .     . .   .
E|--------------------------------------------------------------------------|
B|--------------------------------------------------------------------------|
G|----------------------------------3---------------------------------------|
D|-0--------------------------------3---------------------------------------|
A|-0--------------------------------1-1-1-1-1-1-1-1-1-1-1-------------------|
E|-0-0-0-0-0-0-0-0-0-0-0----------------------------------------------------|
    . . . . . . . . . .              . . . . . . . . . .
E|--------5-6--5-6-5-----------------------------------------------|
B|----6-8-------------8--5-----------------------------------------|
G|-----------------------------------------------------------------|
D|--5--------------------------------------------------------------|
A|--5--------------------------------------------------------------|
E|--5--------------------------------------------------------------|
                h p

Pré-Refrão:
E|----------------------------------------------------|
B|----------------------------------------------------|
G|----------------------------------------------------|
D|----------------------------------------------------|
A|-----5-8-5--------------------5-8-5-----------------|
E|-0-7-------7-0-7---------0-8--------8-0-8-----------|

E|------------------------------------------------------------------|
B|-----------------------------------------5--3-5-3--2-0--3-2-0-----|
G|---------------------------------------------------------------3--|
D|------------------------------------------------------------------|
A|-----5-8-5-----------------5-8-5---5-8----------------------------|
E|-2-5-------5-2-5-----2-6-2-------6--------------------------------|
                                               h p

Refrão:
E|-------------------------------------------------------------------------|
B|-------------------------------------------------------------------------|
G|-----------2---0-2----------3---0-3------------------------------2-0-----|   (2x)
D|----------------------------------------------5----------------------3-5-|
A|--------------------------------------------------4-5---0-00-0-0---------|
E|-0-00-0-0----0-----1-11-1-1---1------2-22-2-2---2------------------------|
  . .. . .    .     . .. . .   .      . .. . .   .       . .. . .

E|------------------------------------------------------------------------|
B|------------------------------------------------------------------------|
G|----------10---(b9)10----------10---(b9)10---------(b9)--7-6---(b9)7-6-7|
D|-0-00-0-0----0-------8-88-88----8------------------------7-77-7-7-------|
A|---------------------------------------7-77-77---7----------------------|
E|------------------------------------------------------------------------|
  . .. . .    .       . .. ..    .      . .. ..   .       . .. . .

(Riff)

(Refrão)

Ponte:
E|-------------------------------------------------------------------------|
B|-------------------------------------------------------------------------|
G|-------------------------------------------------------------------------|
D|-----3-2-3---------------------------------------------------------------|
A|-------------------------------------------------------------------------|
E|--000-------3-2-3--7-6-7---6--66666666666666666-2--222222222222222-------|

E|-----------------------------------------------------------------------|
B|-----------------------------------------------------------------------|
G|-----------------------------------------------------------------------|
D|-----3-2-3----------------6------------------7-------------------------|
A|--------------------------6--5555-7777-8888--7-10101010-8888-7777------|
E|-000-------3-2-3--7-6-7---6------------------7-------------------------|

E|-------------------------------------------------------------------|
B|-------------------------------------------------------------------|
G|-------------------------------------------------------------------|
D|-----3-2-3---------------------------------------------------------|
A|-------------------------------------------------------------------|
E|-000-------3-2-3--7-6-7---6--66666666666666666-2--222222222222222--|

E|---------------------------------------------------------------------------|
B|---------------------------------------------------------------------------|
G|---------------------------------------------------------------------------|
D|-----3-2----------------6------------------------7-------------------------|
A|------------------------6-8888-10101010-12121212-7 13131313-121212-10101010|
E|-000------3-2-3--7-6-7--6------------------------7-------------------------|

E|-----------------------------------------------------------------------------|
B|-----------------------------------------------------------------------------|
G|-----------------------------------------------------------------------------|
D|---3-2-3-------------3--2--2-0-2--------------2-0--7-6-7------8-7-8----------|
A|---------5-4-5-------------------4-2-4------------------8-7-8-------10-(b9)10|
E|-0-------------7-6-7---------------------7-5-7-------------------------------|

E|-----------------------------------------------------------|
B|-----------------------------------------------------------|
G|------------------7-6767676767676767676767676767-----------|
D|--10-8-7---------------------------------------------------|
A|---------10-8-7-8------------------------------------------|
E|-----------------------------------------------------------|

Solo:
E|-----------------------------------------------------------|
B|-----------------------------------------------------------|
G|-7-6-(b9)7-10-(b9)12-10-14-12-15-14-15-17-1(b9)-21~--------|
D|-----------------------------------------------------------|
A|-----------------------------------------------------------|
E|-----------------------------------------------------------|

E|--------15-12-----12-10-11-10-11-10-11-10---------------------------|
B|-----14------------------------------------12-10-11-10-11-10-11-10--|
G|--14---------12-----------------------------------------------------|
D|--------------------------------------------------------------------|
A|--------------------------------------------------------------------|
E|--------------------------------------------------------------------|
                    T                         T
E|--10/------------------------------------------------------------------|
B|------10\----------11-10-11-10-11-10-11-10-12-11-12-11-12-11-12-11-----|
G|----------10/----------------------------------------------------------|
D|--------------10\------------------------------------------------------|
A|-----------------------------------------------------------------------|
E|-----------------------------------------------------------------------|
    T       T        T                        T
E|-------------------------------------------------16-15-16-15-16-15-16-15--|
B|-12-13-12-13-12-13-12-13-14-13-14-13-15-14-16-15--------------------------|
G|--------------------------------------------------------------------------|
D|--------------------------------------------------------------------------|
A|--------------------------------------------------------------------------|
E|--------------------------------------------------------------------------|
   T                        T          T      T     T
E|--17tr---18-17-15-------------------------------------------------------|
B|------------------18-17-15---------------------15----15-17-15-14-15-17~-|
G|---------------------------15~--------16----16----16--------------------|
D|-----------------------------------15----15-----------------------------|
A|--------------------------------17--------------------------------------|
E|------------------------------------------------------------------------|

E|-13-12-10--12-10-8-------------------------------------------------------|
B|-------------------15-13-11-13-11-10--12-10-8--10-8-6--------------------|
G|------------------------------------------------------12-10-----10-------|
D|------------------------------------------------------------12-----12-10-|
A|-------------------------------------------------------------------------|
E|-------------------------------------------------------------------------|

E|-------------------------------------------------------------------------|
B|-------11-14-11--------------14-17-14--------------17-20-17--------------|
G|----12----------12--------15----------15--------18---------18------------|
D|-11----------------11--14----------------14--17---------------17---------|
A|-------------------------------------------------------------------------|
E|-------------------------------------------------------------------------|

E|-------15-18-15---------22~--------------------------------|
B|----17----------17-----------------------------------------|
G|-15----------------15--------------------------------------|
D|-----------------------------------------------------------|
A|-----------------------------------------------------------|
E|-----------------------------------------------------------|

(Refrão)

Outro:
E|-----------------------------------------------------------|
B|-----------------------------------------------------------|
G|-----------------------------------------------------------|
D|----------------------0------------------------------------|
A|-7-8--1-0-----0-------0------------------------------------|
E|-7-8------5-3---5-3-2-0------------------------------------|
            ..    . . .
Composição de Andy Six
Colaboração e revisão:
  • Matheus
1.658 exibições
    • ½ Tom
    • A
    • Bb
    • B
    • C
    • Db
    • D
    • Eb
    • E
    • F
    • F#
    • G
    • Ab
  • Adicionar à lista

    0 comentários

    Ver todos os comentários
    00:00 / 00:00
    outros vídeos desta música
    repetir qualidade Automático
    Outros vídeos desta música
    00:00 / 00:00
    Automático

    Cifra Club Pro

    Aproveite o Cifra Club com benefícios exclusivos e sem anúncios
    Cifra Club Pro
    Aproveite o Cifra Club com benefícios exclusivos e sem anúncios
    OK