Cifra Club

Aprenda

Perfect World

Blackfield

Cifra: Principal (violão e guitarra)
tom: C
  Em                         Gm
E|-0-----0------0-----0-----|-3-----3------3-----3-----|
B|-----0---0--------0---0---|-----3---3--------3---3---|
G|---0-------0----0-------0-|---3-------3----3-------3-|
D|--------------------------|--------------------------|
A|--------------------------|--------------------------|
E|--------------------------|--------------------------|

    F                       Eb
E|-0---1-0------0---1-0-----|-3-----3------3-----3-----|
B|---1-----1------1-----1---|-----4---4--------4---4---|
G|-----------2------------2-|---3-------3----3-------3-|
D|--------------------------|--------------------------|
A|--------------------------|--------------------------|
E|--------------------------|--------------------------|

    Em                         Bm
E|-0-----0------0-----0-----|-2-----2------2-----2-----|
B|-----0---0--------0---0---|-----3---3--------3---3---|
G|---0-------0----0-------0-|---4-------4----4-------4-|
D|--------------------------|--------------------------|
A|--------------------------|--------------------------|
E|--------------------------|--------------------------|

    D                          Am
E|-2-----2------2-----2-----|-0-----0------0-----0-----|
B|-----3---3--------3---3---|-----1---1--------1---1---|
G|---2-------2----2-------2-|---2-------2----2-------2-|
D|--------------------------|--------------------------|
A|--------------------------|--------------------------|
E|--------------------------|--------------------------|

-------------------------------------
VERSE 1
********
Em
  Here on the other side 
Gm
  You've found a place to hide 
F                      Eb
  So wave goodbye to your wasted life 


-------------------------------------
VERSE 2
********
Em
  You never seem to care 
Gm
  If God can hear your prayers
F                        Eb
  There's no sign of angels in the air 


-------------------------------------
CHORUS
*******
   Em
So light my way 
            Bm
And wish me sunny days
  D                        Am
A wish will be reborn to a perfect world
   Em
So dry your tears 
            Bm
And tear up all your fears 
  D                        Am
A wish will be reborn to a perfect world 


-------------------------------------
VERSE 3
********
Em
  You always plead for time 
Gm
  To say what's on your mind 
F
  You're always scared 
           Eb
But making out you're fine 


-------------------------------------
VERSE 4
********
Em
  You leave no one to cry 
Gm
  On the day you die 
F                                  Eb
  They hate you more than you hate to be alive 


-------------------------------------
CHORUS
*******
-------------------------------------
02:13
1st SLIDE SOLO - Em Bm D Am X2
***************
                              s s
E|---s-----s--------------|-109/10--s-s------s-|
B|-1211-12----s--s------|---------7810-8---|
G|-------------91112-11-|---------------------|
D|------------------------|---------------------|
A|------------------------|---------------------|
E|------------------------|---------------------|

                              s s
E|---s-----s--------------|-109/10--s-s------s-----------|
B|-1211-12----s--s------|---------7810--1013--12---s-|
G|-------------91112-11-|---------------------------12-|
D|------------------------|-------------------------------|
A|------------------------|-------------------------------|
E|------------------------|-------------------------------|

-------------------------------------
CHORUS
*******
-------------------------------------
03:12
2nd SLIDE SOLO
***************

E|---s-----s--------------|-109/10--s-s------s-|
B|-1211-12----s--s------|---------7810-8---|
G|-------------91112-11-|---------------------|
D|------------------------|---------------------|
A|------------------------|---------------------|
E|------------------------|---------------------|

                              s s
E|---s-----s--------------|-109/10--s-s------s-----------|
B|-1211-12----s--s------|---------7810--1013--12---s-|
G|-------------91112-11-|---------------------------12-|
D|------------------------|-------------------------------|
A|------------------------|-------------------------------|
E|------------------------|-------------------------------|
Composição de Aviv Geffen / Steven Wilson
Colaboração e revisão:
  • luana oliveira
13 exibições
    • ½ Tom
    • A
    • Bb
    • B
    • C
    • Db
    • D
    • Eb
    • E
    • F
    • F#
    • G
    • Ab
  • Adicionar à lista

    0 comentários

    Ver todos os comentários

    Conseguiu tocar?

    0 Tocaram 0 Ainda não

    Grave um vídeo tocando Perfect World e nos envie!

    00:00 / 00:00
    outros vídeos desta música
    repetir qualidade Automático
    Outros vídeos desta música
    00:00 / 00:00
    Automático

    Cifra Club Pro

    Aproveite o Cifra Club com benefícios exclusivos e sem anúncios
    Cifra Club Pro
    Aproveite o Cifra Club com benefícios exclusivos e sem anúncios
    OK