Cifra Club

Aprenda

Black Rose Dying

Blessthefall

Cifra: Principal (violão e guitarra)
Já pensou em usar uma coleção de roupas do Cifra Club? Responda as perguntas abaixo e nos ajude nessa missão! →
tom: D
Drop D (D A D G B E)

 / slide up
 \ slide down
        
(3) acima de uma série de notas 3 tercina é um meio, caso contrário a sua nota 3 rápido

^ - Armonico 

T - Tapping

INTRO
Guitar 1
(-:----:---------------------------------------------------------------------------------|
e|---------------------------------------------------------------------------------------|
B|-----6-6p5-5-------------6-6p5-5---------------6-6p5-5---------------------------------|
G|------------5-5---x4------------5-5---x2---------------5-5-----x2----------------------|
D|---0-------------------5---------------------3-----------------------------------------|
A|---------------------------------------------------------------------------------------|
D|---------------------------------------------------------------------------------------|

Guitar 2
(just before guitar 1 finishes….)
e|-------------------------------------------------------------------------------------|
B|-------------------------------------------------------------------------------------|
G|-------------------------------------------------------------------------------------|
D|--------------------------------------------------------------------------9^\--------|
A|-------------------------------------------------------------------------------------|
D|-------------------------------------------------------------------------------------|

Verse Part 1:
Guitar 1
(-:----:---------------------------------------------------------------------------------|
e|---------------------------------------------------------------------------------------|
B|-----6-5-----------------6--5------------------6-5-------------------------------------|
G|---------5-----x4-------------5-----x2-------------5----------x2-----------------------|
D|--00--0---------------55--5-----------------33--3--------------------------------------|
A|---------------------------------------------------------------------------------------|
D|---------------------------------------------------------------------------------------|
    PM  |               PM  |                 PM  |

(-:----:---------------------------------------------------------------------------------|
e|---------------------------------------------------------------------------------------|
B|--------------------------------------------------------------------------(tens)-------|
G|---------------------------------------------------------------------------------------|
D|--0-0-00-00-0-0-00-00-0-0-00-00-0-0-00-00-5-5-55-55-5-5-55-55-8-8-88-88-10-10-1010-----|
A|--0-0-00-00-0-0-00-00-0-0-00-00-0-0-00-00-5-5-55-55-5-5-55-55-8-8-88-88-10-10-1010-----|
D|--0-0-00-00-0-0-00-00-0-0-00-00-0-0-00-00-5-5-55-55-5-5-55-55-8-8-88-88-10-10-1010-----|
   PM-->|  PM----->| PM---->|  PM---->|  PM---->|  PM---->|  PM---->|  PM----------------|


Verse Part 2 (x3)

Guitar 2 
(-:----:-------------------------------------------------------------------------------|
e|------------------------------------------------------------------------|------------|
B|------------------------------------------------------------------------|-END|--WITH--|
G|-----{3}---------{3}---------{3}---------{3}-----------------3-3-33s5-5-|------------|
D|--0--000-0-000-0-000-0-000-0-000-0-000-0-000-0-000--555555/--3-3-33-x-x-|------------|
A|--0--000-0-000-0-000-0-000-0-000-0-000-0-000-0-000--555555/--1-1-11s3-3-|------9^\---|
D|--0--000-0-000-0-000-0-000-0-000-0-000-0-000-0-000--555555/-------------|------------|
    PM-->|   PM----->|   PM----->|   PM----->|   PM------>|    PM----------------------|

REPEAT VERSE PART 1 x2
REPEAT VERSE PART 2 x3

BRIDGE
Guitar 2 
(-:----:--)                                                                            e|---------------------------|--|
B|---------------------------|-----------------------------------------------------------------------------------------|
G|-----{3}-----{3}-----------|-----------------------------------------------------------------------------------------|
D|--0--000--0--000--0-0-0--x3|-0-000-0---------------------------------------------------------------------------------|
A|--0--000--0--000--0-0-0----|-0-000-0---------------------------------------------------------------------------------|
D|--0--000--0--000--0-0-0----|-0-000-0---------------------------------------------------------------------------------|
    PM-----------------------------------------------------------------------------------------------------------------|

(-:----:--)   |ending 1| ending 2 |  ending 3 |ending 4--------|
e|---------------|--------|----------|-----------|-------------|
B|---------------|--------|---x-xx---|-----------|-x-x---------|
G|---------------|--------|---x-xx---|-----------|-x-x---------|      x2
D|-0000000-00-00-|--------|----------|-----------|-------------|
A|-0000000-00-00-|---9^\--|----------|-----------|-------------|
D|-0000000-00-00-|--------|----------|-----------|-------------|
   PM----------------------------------------------------------|

INTERLUDE PART 1 (x1)
Guitar 2
(-:----:---------------------------------------------------------------------------------|
e|---------------|------------------------------|----------------------------------------|
B|---------------|---66-6-6-65-5--5--5--5-5-----|-/666666s55555555-----------------------|
G|---------------|---x--x-x-xx-x--x--x--x-x-x3-|--xxxxxx-xxxxxxxx------------------------|
D|-00--00--00--0-|---33-3-3-32-2--2--2--2-2-----|-/333333-22222222-----------------------|
A|-00--00--00--0-|------------------------------|----------------------------------------|
D|-00--00--00--0-|------------------------------|----------------------------------------|
   PM--------->|     PM     PM       PM--------------------------------------------------|

INTERLUDE PART 2 (x3)
Guitar 2
(-:----:---------------------------------------------------------------------------------|
e|---------------------------------------------------------------------------------------|
B|--------6-6-6--------5-5-5-------------------------------------------------------------|
G|--------x-x-x--------x-x-x-x4----------------------------------------------------------|
D|--0-00--3-3-3--0-00--2-2-2-------------------------------------------------------------|
A|--0-00---------0-00--------------------------------------------------------------------|
D|--0-00---------0-00--------------------------------------------------------------------|
    PM>|         PM>|


(-:----:------------------------------------------------------------------------------------------------------|
e|------------------------------------------------------------------------------------------------------------|
B|------------------------------------------------------------------------------------------------------------|
G|------------------------------------------------------------------------------------------------------------|
D|--------------------------------------121212141414151515141414121212141414121212----------------------------|
A|--101010121212141414121212141414151515-------------------------------------------151515141414121212101010---|
D|------------------------------------------------------------------------------------------------------------|
    PM----->|


(-:----:--)                                       
e|-----------------|---------------|----------------|------------------------------------|
B|------6---5------|----6---5------|-----6---5------|------------------------------------|
G|------------5----|----------5----|-----------5----|------------------------------------|
D|---00---0--------|-55---5--------|--33---3--------|---0000000000000000-----------------|
A|--------------x4-|------------x2-|-------------x2-|---0000000000000000-----------------|
D|-----------------|---------------|----------------|---0000000000000000-----------------|



VERSE PART 1 VARIATION

GUITAR 1
(-:----:---------------------------------------------------------------------------------|
e|---------------------------------------------------------------------------------------|
B|------6---5-----------6p5----------5h6p5-5h68p6p5-6p5---------6------------------------|
G|------------5--x4---------8p6p5h6h8-----8-------------8p6p5h68-------------------------|
D|---00---0------------------------------------------------------------------------------|
A|---------------------------------------------------------------------------------------|
D|---------------------------------------------------------------------------------------|

e|--------------------------------------------------------------------------------|
B|-----------------------------------------------------------------6-6-6-5-5-5----|
G|-----{3}---------{3}---------{3}---------{3}---------------------x-x-x-x-x-x----|
D|--0--000-0-000-0-000-0-000-0-000-0-000-0-000-0-000--555555/------3-3-3-2-2-2----|
A|--0--000-0-000-0-000-0-000-0-000-0-000-0-000-0-000--555555/---------------------|
D|--0--000-0-000-0-000-0-000-0-000-0-000-0-000-0-000--555555/---------------------|
    PM-->|   PM----->|   PM----->|   PM----->|   PM-------------------------------|



GUITAR 1
(-:----:--)---------------------------------------|                                  END ON
E|---------------------------------------|--------|
B|---------------------------------------|--------|
G|---T12p9p7----T14p11p9-----to-end...---|---7~~--|
D|---------------------------------------|---x~~--|
A|---------------------------------------|---5~~--|
E|---------------------------------------|--------|

GUITAR 2
(-:----:--)---------------------------------------|                                  END ON
E|---------------------------------------|--------|
B|---------------------------------------|--------|
G|---------------------------------------|--------|
D|--00000000000000000000000--to-end...---|---0~~--|
A|--00000000000000000000000--------------|---0~~--|
E|--00000000000000000000000--------------|---0~~--|
Composição de blessthefall
Colaboração e revisão:
  • Marcinho
7.262 exibições
    • ½ Tom
    • A
    • Bb
    • B
    • C
    • Db
    • D
    • Eb
    • E
    • F
    • F#
    • G
    • Ab
  • Adicionar à lista

    0 comentários

    Ver todos os comentários

    Conseguiu tocar?

    1 Tocaram 0 Ainda não

    Grave um vídeo tocando Black Rose Dying e nos envie!

    00:00 / 00:00
    Outros vídeos desta música
    Repetir Qualidade Automático
    Outros vídeos desta música
    00:00 / 00:00
    Automático

    Cifra Club Pro

    Aproveite o Cifra Club com benefícios exclusivos e sem anúncios
    Cifra Club Pro
    Aproveite o Cifra Club com benefícios exclusivos e sem anúncios
    OK