Cifra Club

Batlefield

Blind Guardian

Cifra: Principal (violão e guitarra)
tom: B
Simbologia

x - nota morta
h - hammer-on
p - pull-off
/ - slide up
\\ - slide down
b - bend
r - bend/release
~ - tremolo

Guitarra limpa
Eb||---7---6h7h6h-4--6---------|--7---6h7h6h-4--2---------|
A#||-----------------7---------|--------------------------|
F#||*--4-----------------------|--4-----------------------|
C#||*--------------------------|--------------------------|
G#||---------------------------|--------------------------|
D#||---------------------------|--------------------------|

2x Overdrive
--7---6-7-6--4--6----4--------|--4-----------------||-------------------|
----------------0----0----7---|--0-----------------||-------------------|
--4---------------------------|-------------------*||--4----------------|
------------------------------|-------------------*||--6----------------|
------------------------------|--------------------||--6----------------|
------------------------------|--------------------||--4----------------|

--------------------|-------------------|----------------------|
--------------------|-------------------|----------------------|
--3--------4--------|--4----------------|--4----4----3----3----|
--4--------6--------|--6----------------|--4----4----4----4----|
--4--------6--------|--6----------------|--2----2----4----4----|
--2--------4--------|--4----------------|--2----2----2----2----|

---------------------|---------------------|--------------------|
---------------------|---------------------|--------------------|
--4--------4----4----|--4--------3----3----|--4--------4--------|
--6--------4----4----|--6--------4----4----|--6--------4--------|
--6--------2----2----|--6--------4----4----|--6--------2--------|
--4--------2----2----|--4--------2----2----|--4--------2--------|

--------------------|----------------------------------|
--------------------|----------------------------------|
--3--------1--------|----------------------------------|
--4--------2--------|----------------------------------|
--4--------2--------|--6-------------------------------|
--2--------0--------|--4-4-4-4-4-4-4-4-4-4-4-4-4-4-4-4-|

----------------------------------|----------------------------------|
----------------------------------|------------------------------4h5-|
----------------------------------|----------------------------------|
----------------------------------|----------------------------------|
--4-------------------------------|--6-------------------------------|
--2-2-2-2-2-2-2-2-2-2-2-2-2-2-2-2-|--4-4-4-4-4-4-4-4-4-4-4-4-4-4-----|

---------------------------|----------------------------------|
--7--4h5h4-----4-----------|----------------------------------|
------------6-----6--4--3--|----------------------------------|
---------------------------|----------------------------------|
---------------------------|--6-------------------------------|
---------------------------|--4-4-4-4-4-4-4-4-4-4-4-4-4-4-4-4-|

----------------------------------|----------------------------------|
----------------------------------|----------------------------------|
----------------------------------|----------------------------------|
----------------------------------|----------------------------------|
--4-------------------------------|--6-------------------------------|
--2-2-2-2-2-2-2-2-2-2-2-2-2-2-2-2-|--4-4-4-4-4-4-4-4-4-4-4-4-4-4-4- --------------------------------|
-------------------|---------------------||--15----14h15h14--12----14~-------|
-------------------|--------------------*||----------------------------------|
-------------------|--------------------*||----------------------------------|
--4----------------|--5--------7---------||----------------------------------|
--2----------------|--3--------5---------||----------------------------------|

----------------------------------|------------------------------------------|
--15----14h15h14--12----10~-------|--15----14h15h14--12----14----12----10----|
----------------------------------|------------------------------------------|
----------------------------------|------------------------------------------|
----------------------------------|------------------------------------------|
----------------------------------|------------------------------------------|

--------------------12-14-15-14-12-|--14----------------|
-----------12-14-15----------------|--------------------|
--9--------------------------------|--------------------|
-----------------------------------|--------------------|
-----------------------------------|--------------------|
-----------------------------------|--------------------|

--17b---17b---17--------|----------12-14-12--------------|--12~---------------|
------------------------|--17b-----------------15-14/15--|--------------------|
------------------------|--------------------------------|--------------------|
------------------------|--------------------------------|--------------------|
------------------------|--------------------------------|--------------------|
------------------------|--------------------------------|--------------------|

----------------------|--------------------------|--17b-------17--------|
--17b-------17--------|--15------17-15-14--------|----------------------|
----------------------|--------------------------|----------------------|
----------------------|--------------------------|----------------------|
----------------------|--------------------------|----------------------|
----------------------|--------------------------|----------------------|

--15------17-15-14--------|----------------------|--------------------------|
--------------------------|--17b-------17--------|--15------17-15-14--------|
--------------------------|----------------------|--------------------------|
--------------------------|----------------------|--------------------------|
--------------------------|----------------------|--------------------------|
--------------------------|----------------------|--------------------------|

--17b-------17--------|--15------17-15-14--------|--17r---------------||
----------------------|--------------------------|--------------------||
----------------------|--------------------------|--------------------||
----------------------|--------------------------|--------------------||
----------------------|--------------------------|--------------------||
-----------
Compositor não encontrado.
Colaboração e revisão:
  • Junior Jr
3.616 exibições
    • ½ Tom
    • A
    • Bb
    • B
    • C
    • Db
    • D
    • Eb
    • E
    • F
    • F#
    • G
    • Ab
  • Adicionar à lista

    0 comentários

    Ver todos os comentários

    Conseguiu tocar?

    0 Tocaram 0 Ainda não

    Grave um vídeo tocando Batlefield e nos envie!

    00:00 / 00:00
    Outros vídeos desta música
    Repetir Qualidade Automático
    Outros vídeos desta música
    00:00 / 00:00
    Automático

    Cifra Club Pro

    Aproveite o Cifra Club com benefícios exclusivos e sem anúncios
    Cifra Club Pro
    Aproveite o Cifra Club com benefícios exclusivos e sem anúncios
    OK