Cifra Club

Soup

Blind Melon

Cifra: Principal (violão e guitarra)
Selo Cifra Club: esta cifra foi revisada para atender aos critérios oficiais da nossa Equipe de Qualidade.
tom: E
    Intro:

  e:--0-2---4-2--x-x--
  B:--0----------x-x--
  G:------------------
  D:------------------
  A:------------------
  E:--0---0-----------


    Estrofe 1: (2x)

  e:--------------4--------0---------------------5------------------
  B:-------0----5--------0-------0----0--------2----2---0----0------
  G:----------------------------------------------------------------
  D:--4/6----2---------------------1----2/4-------------------------
  A:----------------4-2-------4-------------0---------0---0----2-4--
  E:----------------------------------------------------------------
         The clothesline...            ...before
  Now tell me...                       ...day


    Refrão: (2x)                                       _________     _________
                                                      / 1ª vez      / 2ª vez
  e:--4----4-----5-----7-----5-----4------------------|------------|--7-7-5-\4h5-p4h5-p4p0--
  B:--5-5----5-----5-----5-----5-----5----2h4---------|--2h4-------|------------------------
  G:-------------------------------------------4-2-1--|-------4-2--|------------------------
  D:--------------------------------------------------|------------|------------------------
  A:--------------------------------------------------|------------|------------------------
  E:--0---0----0-----0-----0-----0-----0--------------|------------|------------------------
                               Oooh...    bowl of...


    Estrofe 2: (2x)                                                    _________
                                                                    / 2ª vez
  e:--------------4--------0---------------------5------------------|--0------
  B:-------0----5--------0-------0----0--------2----2---0----0------|--0------
  G:----------------------------------------------------------------|--1------
  D:--4/6----2---------------------1----2/4-------------------------|--2------
  A:----------------4-2-------4-------------0---------0---0----2-4--|--2------
  E:----------------------------------------------------------------|--0------
    And outside...                     ...me
 And now, I want...                    ...here                ...needed here


    Refrão: (2x)                                       _________     _________
                                                      / 1ª vez      / 2ª vez
  e:--4----4-----5-----7-----5-----4------------------|------------|--7-7-5-/4h5-p4h5-p4p0--
  B:--5-5----5-----5-----5-----5-----5----2h4---------|--2h4-------|------------------------
  G:-------------------------------------------4-2-1--|-------4-2--|------------------------
  D:--------------------------------------------------|------------|------------------------
  A:--------------------------------------------------|------------|------------------------
  E:--0---0----0-----0-----0-----0-----0--------------|------------|------------------------
                               Oooh...    bowl of...


    Estrofe 3: (2x)

  e:--------------4--------0---------------------5------------------
  B:-------0----5--------0-------0----0--------2----2---0----0------
  G:----------------------------------------------------------------
  D:--4/6----2---------------------1----2/4-------------------------
  A:----------------4-2-------4-------------0---------0---0----2-4--
  E:----------------------------------------------------------------
 I got a corner...                     ...holidays
     I'll close...                     ...away,    I'll make you all go away


  e:------------------------------0--
  B:--------------------2-2---4---2--
  G:----------------1-------------2--
  D:--------1-2--4-----------6-6-----
  A:--2--4------------------------0--
  E:------------------2-----4--------
      I'll make you all go


    Estrofe 4:

  e:--0---0--0--0--0-0--0-0-0---0--0--0--0-0--0-0-0--0--0--0--0-0--0--X-X-0--0--0--0-0--0--|
  B:--4\2-2--2--2--2-2--2-4-4\2-2--2--2--2-2--2-4-4\-0--0--0--0-0--0--X-X-0--0--0--0-0--0--|
  G:--4\2-2--2--2--2-2--2-4-4\2-2--2--2--2-2--2-4-4\-1--1--1--1-1--1--X-X-1--1--1--1-1--1--|
  D:--4\2-2--2--2--2-2--2-4-4\2-2--2--2--2-2--2-4-4\-2--2--2--2-2--2--X-X-2--2--2--2-2--2--|
  A:--0---0--0--0--0-0--0-0-0---0--0--0--0-0--0-0-0--2--2--2--2-2--2--X-X-2--2--2--2-2--2--|
  E:-------------------------------------------------0--0--0--0-0--0--X-X-0--0--0--0-0--0--|
     \_______________________________________(3x)_________________________________________/
                                                  away
                                                                      And I'll pull...
          I'll make it all go away, I'll...    ...away


  e:--0--0--0--0-0--0----2--2--2--2-2--2--X-X-0--0--0--0-0--0--X-X-0--0--0--0-0--0--
  B:--2--2--2--2-2--2----3--3--3--3-3--3--X-X-0--0--0--0-0--0--X-X-0--0--0--0-0--0--
  G:--2--2--2--2-2--2----2--2--2--2-2--2--X-X-1--1--1--1-1--1--X-X-1--1--1--1-1--1--
  D:--2--2--2--2-2--2----0--0--0--0-0--0--X-X-2--2--2--2-2--2--X-X-2--2--2--2-2--2--
  A:--0--0--0--0-0--0---------------------X-X-2--2--2--2-2--2--X-X-2--2--2--2-2--2--
  E:--------------------------------------X-X-0--0--0--0-0--0--X-X-0--0--0--0-0--0--


    Fim:

  e:--0--0--0--0-0--0----0--0--0--0-0--0--X-X-0--0--0--0-0--0--X-X-0--0--0--0-0--0--|
  B:--2--2--2--2-2--2----2--2--2--2-2--2--X-X-0--0--0--0-0--0--X-X-0--0--0--0-0--0--|
  G:--2--2--2--2-2--2----2--2--2--2-2--2--X-X-1--1--1--1-1--1--X-X-1--1--1--1-1--1--|
  D:--2--2--2--2-2--2----2--2--2--2-2--2--X-X-2--2--2--2-2--2--X-X-2--2--2--2-2--2--|
  A:--0--0--0--0-0--0----0--0--0--0-0--0--X-X-2--2--2--2-2--2--X-X-2--2--2--2-2--2--|
  E:--------------------------------------X-X-0--0--0--0-0--0--X-X-0--0--0--0-0--0--|
     \___________________________________(3x)______________________________________/


  e:--0--0--0--0-0--0----2--2--2--2-2--X-2-2-0~--
  B:--2--2--2--2-2--2----3--3--3--3-3--X-3-3-0~--
  G:--2--2--2--2-2--2----2--2--2--2-2--X-2-2-1~--
  D:--2--2--2--2-2--2----0--0--0--0-0--X-0-0-2~--
  A:--0--0--0--0-0--0------------------------2~--
  E:-----------------------------------------0~--




Letra:


The clothesline of cold eyes
Is washing away the face before
Now tell me what's wrong you see everyone's gone
You gotta do your best to decorate this dying' day
This dying' day

All over a bowl of bitter beans

And outside way, way up high I got a quarter moon misthanging' over me
And now, I want that rocking chair outta there
Cause he's no longer living here
It's no longer needed here

All over a bowl of bitter beans

And I got a corner store and that's all the more
For me to praise upon the holidays
And now I'll close my eyes really, really tight
And make you all go away,
I'll make you all go away I'll make you all go... away

And I'll pull the trigger and make it all go away
I'll make it all go away, I'll make it all go away
Outros vídeos desta música
    7.035 exibições
      • ½ Tom
      • A
      • Bb
      • B
      • C
      • Db
      • D
      • Eb
      • E
      • F
      • F#
      • G
      • Ab
    • Adicionar à lista

    Afinação da cifra

    Afinador online

      0 comentários

      Ver todos os comentários

      Conseguiu tocar?

      0Tocaram0Ainda não

      Grave um vídeo tocando Soup e nos envie!

      Toque também

      1. Imagem do artista Stone Temple PilotsPlush Stone Temple Pilots
      2. Imagem do artista Temple Of The DogHunger Strike Temple Of The Dog
      3. Imagem do artista Mad SeasonRiver Of Deceit Mad Season
      4. Imagem do artista CandleboxFar behind Candlebox

      Entre para o Cifra Club PRO

      Tenha acesso a benefícios exclusivos no App e no Site

      • Chega de anúncios

      • Badges exclusivas

      • Mais recursos no app do Afinador

      • Atendimento Prioritário

      • Aumente seu limite de lista

      • Ajude a produzir mais conteúdo

      Cifra Club Pro

      Aproveite o Cifra Club com benefícios exclusivos e sem anúncios
      Cifra Club Pro
      Aproveite o Cifra Club com benefícios exclusivos e sem anúncios
      Ops (: Contenido disponible sólo en portugués.
      OK