Cifra Club

Liberty

Blindside

Cifra: Principal (violão e guitarra)
Selo Cifra Club: esta cifra foi revisada para atender aos critérios oficiais da nossa Equipe de Qualidade.
tom: G
(intro)

E|---7h8p8h8p8-|-------|-19^---
B|-----------------------------
G|-----------------------------
D|-----------------------------
A|-----------------------------
E|-----------------------------

(refrão)
E|-------------------------
B|-------------------------
G|-------------------------
D|---22--2--4--5--2x-------
A|---22--2--4--5--2x-------
E|---00--0--2--3--0x-------

E|---7h8p8h8p8-------
B|-------------------
G|-------------------
D|-------------------
A|-------------------
E|-------------------

E|-------------------------
B|-------------------------
G|-------------------------
D|---22--2--4--5--2--------  (4x)
A|---22--2--4--5--2--------
E|---00--0--2--3--0--------

E|---7h8p8h8p8-----------19^---
B|-----------------------------
G|-----------------------------
D|-----------------------------  (3x)
A|-----------------------------
E|-----------------------------

E|-------------------------
B|-------------------------
G|-------------------------
D|---22--2--4--5--2x-------
A|---22--2--4--5--2x-------
E|---00--0--2--3--0x-------

E|---7h8p8h8p8-------
B|-------------------
G|-------------------
D|-------------------
A|-------------------
E|-------------------

E|-------------------------
B|-------------------------
G|-------------------------
D|---22--2--4--5--2--------  (12x)
A|---22--2--4--5--2--------
E|---00--0--2--3--0--------

E|----------------------------------
B|----------------------------------
G|----------------------------------
D|---44444444-----222-2--44445555---  (abafado)
A|---44444444-----222-2--44445555---
E|---22222222-----000-0--22223333---

E|---------------------
B|---------------------
G|---------------------
D|---222-2--44445555---   (2x)
A|---222-2--44445555---
E|---000-0--22223333---

Na ultima vez é assim
E|-----------------------------
B|-----------------------------
G|-------------111111121212----
D|---222-2-----111111121212----
A|---222-2----- 9 9 9101010----
E|---000-0---------------------

E|-----------------------------
B|-----------------------------
G|-------------111111121212----
D|---222-2-----111111121212----  (4x)
A|---222-2----- 9 9 9101010----
E|---000-0---------------------

(final)
E|-----------------------------
B|-----------------------------
G|---99999-----111111121212----
D|---99999-----111111121212----  (4x)
A|---77777----- 9 9 9101010----
E|-----------------------------
Outros vídeos desta música
    61 exibições
      • ½ Tom
      • A
      • Bb
      • B
      • C
      • Db
      • D
      • Eb
      • E
      • F
      • F#
      • G
      • Ab
    • Adicionar à lista

    Afinação da cifra

    Afinador online

      0 comentários

      Ver todos os comentários

      Entre para o Cifra Club PRO

      Tenha acesso a benefícios exclusivos no App e no Site

      • Chega de anúncios

      • Badges exclusivas

      • Mais recursos no app do Afinador

      • Atendimento Prioritário

      • Aumente seu limite de lista

      • Ajude a produzir mais conteúdo

      Cifra Club Pro

      Aproveite o Cifra Club com benefícios exclusivos e sem anúncios
      Cifra Club Pro
      Aproveite o Cifra Club com benefícios exclusivos e sem anúncios
      Ops (: Contenido disponible sólo en portugués.
      OK