Cifra Club

Boring

blink-182

Cifra: Principal (violão e guitarra)
Tom: E
Intro:

E|---------------------|---------------------|
B|---------------------|---------------------|
G|---------------------|---------------------|  
D|---------------------|---------------------|  8x
A|-0-4--0-0--5-0--4p0--|---2-------5----2p0--|
E|---------------------|-0----0-0----0-------|



Verso:

E|-------------------|-----------------------|
B|-------------------|-----------------------|
G|------2---------2--|----------------7------|  
D|------2---------2--|------4---------7------|  
A|-0-0--0----4-4--4--|------4----5-5--5------|
E|-------------------|-2-2--2----------------|
                                                2x
E|-------------------|-----------------------|
B|-------------------|-----------------------|
G|----------------2--|-----------7-----------|  
D|------2---------2--|-----------7-----------|  
A|------2----4-4--4--|------2-0--5-----------|
E|-0-0--0------------|-0-0-------------------|

You don't need nothin' 
And I know that you won't even try 
Don't wait for me to help you 
Too late for any of my advice



Refrão:

E|-----------------------------------|
B|-----------------------------------|
G|-------6-6-------7-7--9-9-9--------|  
D|--7-7--6-6--6-6--7-7--9-9-9--------|   4x
A|--7-7--4-4--6-6--5-5--7-7-7--------|
E|--5-5-------4-4--------------------|

No trust 
All I got is lies 
Boring 
Alright


Intro:

E|---------------------|---------------------|
B|---------------------|---------------------|
G|---------------------|---------------------|  
D|---------------------|---------------------|  4x
A|-0-4--0-0--5-0--4p0--|---2-------5----2p0--|
E|---------------------|-0----0-0----0-------|


Verso 2:

E|-------------------|-----------------------|
B|-------------------|-----------------------|
G|------2---------2--|----------------7------|  
D|------2---------2--|------4---------7------|  
A|-0-0--0----4-4--4--|------4----5-5--5------|
E|-------------------|-2-2--2----------------|
                                                2x
E|-------------------|-----------------------|
B|-------------------|-----------------------|
G|----------------2--|-----------7-----------|  
D|------2---------2--|-----------7-----------|  
A|------2----4-4--4--|------2-0--5-----------|
E|-0-0--0------------|-0-0-------------------|

Misplaced your values 
Forgot being the importance of being right 
Don't sit there and act humble 
I've heard your story a thousand times


Refrão:

E|-----------------------------------|
B|-----------------------------------|
G|-------6-6-------7-7--9-9-9--------|  
D|--7-7--6-6--6-6--7-7--9-9-9--------|   4x
A|--7-7--4-4--6-6--5-5--7-7-7--------|
E|--5-5-------4-4--------------------|

No trust 
All I got is lies 
Boring 
Alright


Solo:

E|---------------------------------------|-------------------------------------|
B|---------------------------------------|-------------------------------------|
G|---------------------------------------|-------------------------------------|
D|--7-7-7--6-6-6-------------------------|--------6-6-6------------------------|  4X
A|----------------7-7-7-7-7-7-7-7-7-7----|-5-5-5---------7-7-7-0-0-0-0-0-0-0---|
E|---------------------------------------|-------------------------------------|


E|-----------------------------------------------------|
B|-----------------------------------------------------|
G|-2-2---------------------6-6-------7-7--9-9----------|  
D|-2-2-----x-x-x-x----7-7--6-6--6-6--7-7--9-9----------|   4x
A|-0-0-----x-x-x-x----7-7--4-4--6-6--5-5--7-7----------|
E|--------------------5-5-------4-4--------------------|
exibições 5.892
Acordes para:
    Composição: blink-182 Colaboração e revisão:
    • Renan Luiz
    • Diego Galvão

    0 comentários

    mostrar mais comentários

    Conseguiu tocar?

    0 tocaram 0 ainda não

    Grave um vídeo tocando Boring e mande pra gente!

    00:00 / 00:00
    outros vídeos desta música
    repetir qualidade Automático
    Outros vídeos desta música
    00:00 / 00:00
    Automático
    OK