Cifra Club

Aprenda

Carousel

Blink-182

Cifra: Versão 3 (violão e guitarra)
Tom: G
Versão do album cheshire cat

int:
e|----------------------------------------------------------------------------------------------|
b|----------------------------------------------------------------------------------------------|
g|----------------------------------------------------------------------------------------------|
d|----------------------------------------------------------------------------------------------|
a|-12-12-12-10-10-10-09-09-12-12-12-10-10-10-09-09-10-10-10-10-9-9-9-09-09-09-09-09-09-09-09-09-|
e|-10-10-10-10-10-10-10-10-10-10-10-10-10-10-10-10-------------------10-10-10-10-10-10-10-10-10-|

continuação
e|--------------------------------------------------------------------------------|
b|--------------------------------------------------------------------------------|
g|--------------------------------------------------------------------------------|
d|--------------------------------------------------------------------------------| x 2
a|-10-10-10-9-9-9-7-10-10-10-9-9-9-7-10-10-10-10-9-9-9-09-09-09-09-09-09-09-09-09-|
e|-07-07-07-7-7-7-7-07-07-07-7-7-7-7-------------------10-10-10-10-10-10-10-10-10-|

agora fica so no baixo

agora entra a guitar

riff 1
e|---------------------------------------------------------------|
b|---------------------------------------------------------------|
g|-11-11-11-11-11-11-9-9-9-9-9-9--11-11-11-11-11-11-7-7-7-7-7-7--|
d|---------------------------------------------------------------|x 1
a|---------------------------------------------------------------|
e|---------------------------------------------------------------|

e|---------------------------------------------------------------|
b|---------------------------------------------------------------|
g|-11-11-11-11-11-11-9-9-9-9-9-9--11-11-11-11-11-11-7-7-7-7-7-7--|
d|-0--0--0--0--0--0--7-7-7-7-7-7--0--0--0--0--0--0--5-5-5-5-5-5--| x2 
a|---------------------------------------------------------------|
e|---------------------------------------------------------------|

riff2 power chords

e|---------|
b|---------|
g|-7-------|
d|-7-7-9-5-|
a|-5-7-9-5-|x 2
e|---5-7-3-|

riff3
e|------------------------------------------------------------|
b|------------------------------------------------------------|
g|------------------------------------------------------------|
d|------------------------------------------------------------|
a|-4-5-4--5-5-5-5-5-5-5-5--7-5-4-4-5--4-5-5-5-5--7-4-5-7-5-0--|
e|------------------------------------------------------------|

e|--------------------------------------------------------------------------|
b|--------------------------------------------------------------------------|
g|--------------------------------------------------------------------------|
d|-4-4-4-4-5-2-2-2-2-2-2-2--4-4-4-4-5-7-7-5-5-4-4-2-2-4-4-4-4-5-2-2-2-2-2-2-|
a|--------------------------------------------------------------------------|
e|--------------------------------------------------------------------------|

e|-----------------------|
b|-----------------------|
g|-----------------------|
d|-4-0-2-0-0-0-2-4-5-4-0-|
a|-----------------------|
e|-----------------------|

verso 1

e|---------|
b|---------|
g|-7-------|
d|-7-7-9-5-|x2
a|-5-7-9-5-|
e|---5-7-3-|

verso 2
e|---------------------------------------------------------------|
b|---------------------------------------------------------------|
g|-11---11----11--9----9----9---11----11----11---7-----7-----7---|
d|---0-0---0-0--0--7-7---7-7--7---9-9---9-9----9---5-5---5-5---7-|
a|---------------------------------------------------------------|x 2
e|---------------------------------------------------------------|

e|----------------------------------|
b|----------------------------------|
g|-11----11-----11---7----7-----7---|x 1
d|---9-9----9-9----9--5-5---5-5---7-|
a|----------------------------------|
e|----------------------------------|

refrão

e|---------|--------|
b|---------|--------|
g|-7-9-----|--------|
d|-7-9-7-5-|----7-5-|
a|-5-7-7-5-|x 4-7-5-|
e|-----5-3-|----5-3-|

riff 3

verso 1


riff 4

e|-------------------------------------------------------|
b|-------------------------------------------------------|
g|-------------------------------------------------------|
d|--4-5-7-5-4--------------------------------------------|
a|-5----------5---4-5-7-5-4----6-7-9-7-6----2-3-5-3-2----|x 4
e|--------------5-----------5-7----------7-3----------3--|

refrão x3
Composição de blink-182
Colaboração e revisão:
  • diego sousa
13.386 exibições
    • ½ Tom
    • A
    • Bb
    • B
    • C
    • Db
    • D
    • Eb
    • E
    • F
    • F#
    • G
    • Ab
  • Adicionar à lista

    0 comentários

    Mostrar mais comentários

    Conseguiu tocar?

    0 Tocaram 0 Ainda não

    Grave um vídeo tocando Carousel e mande pra gente!

    00:00 / 00:00
    outros vídeos desta música
    repetir qualidade Automático
    Outros vídeos desta música
    00:00 / 00:00
    Automático

    Cifra Club Pro

    Aproveite o Cifra Club com benefícios exclusivos e sem anúncios
    7 dias grátis
    Cifra Club Pro
    Aproveite o Cifra Club com benefícios exclusivos e sem anúncios
    7 dias grátis
    OK