Cifra Club

Carousel

blink-182

Tab de baixo: Principal
Intro: 

G:-14-14-14--12-12-12--11-11--14-14-14--12-12-12--11-11-
D:-0--0--0---0--0--0---0--0---0--0--0---0--0--0---0--0--
A:------------------------------------------------------  
E:------------------------------------------------------

G:-6--6--6---7--7--7---9--9---6--6--6---7--7--7---9--9--
D:-7--7--7---7--7--7---7--7---7--7--7---7--7--7---7--7--
A:------------------------------------------------------  
E:------------------------------------------------------

G:-12-12-12--11-11-11--9--9---12-12-12--11-11-11--9--9--
D:-9--9--9---9--9--9---9--9---9--9--9---9--9--9---9--9--
A:------------------------------------------------------  
E:------------------------------------------------------

G:-0—-0--7---0--0--7---0--7---0—-0--7---0--0--7---0--7--
D:-5--5--5---9--9--9---9--9---9--9--9---9--9--9---9--9--
A:------------------------------------------------------  
E:------------------------------------------------------

G:-14-14-14--12-12-12--11-11--14-14-14--12-12-12--11-11-
D:-0--0--0---0--0--0---0--0---0--0--0---0--0--0---0--0--
A:------------------------------------------------------  
E:------------------------------------------------------

G:-6--6--6---7--7--7---9--9---6--6--6---7--7--7---9--9--
D:-7--7--7---7--7--7---7--7---7--7--7---7--7--7---7--7--
A:------------------------------------------------------  
E:------------------------------------------------------

G:-12-12-12--11-11-11--9--9---12-12-12--11-11-11--9--9--
D:-9--9--9---9--9--9---9--9---9--9--9---9--9--9---9--9--
A:------------------------------------------------------  
E:------------------------------------------------------

G:-0—-0--7---0--0--7---0--7---0—-0--7---0--0--7---0--7--
D:-5--5--5---9--9--9---9--9---9--9--9---9--9--9---9--9--
A:------------------------------------------------------  
E:------------------------------------------------------

G:---11-11-12-14-12-11------6-6-7-9-7-6-----9-9-11-12-11-9-11-----7------7---7-
D:-0-------------------12-/7-------------79-------------------5-5----5-5---5---
A:-----------------------------------------------------------------------------
E:-----------------------------------------------------------------------------

G:---11-11-12-14-12-11------6-6-7-9-7-6-----9-9-11-12-12-11-11--7-7-7-7-7-7-7--
D:-0-------------------12/7-------------79----------------------5-5-5-5-5-5-5--
A:-----------------------------------------------------------------------------
E:-----------------------------------------------------------------------------

G:-11-11-11-11-11-11--9--9--9--9--9--9--11-11-11-11-11-11---7-7-7-7-7-7-7-
D:-0--0--0--0--0--0---7--7--7--7--7--7---9--9--9--9--9--9---5-5-5-5-5-5-5-
A:------------------------------------------------------------------------
E:------------------------------------------------------------------------

G:-11-11-11-11-11-11--9--9--9--9--9--9--11-11-11-11-11-11---7-7-7-7-7-7-7-
D:-0--0--0--0--0--0---7--7--7--7--7--7---9--9--9--9--9--9---5-5-5-5-5-5-5-
A:------------------------------------------------------------------------
E:------------------------------------------------------------------------

G:-------------------|     ------------------------------------------------------
D:-------------------|     ------------------------------------------------------
A:5555-0000-2222-----|(2x) -5555-0000-222210-10-10-10-5555-0000-222210-12-10-9- 
E:---------------3333|     ------------------------------------------------------

Verso: 
G:-------------------------------------------------------
D:-------------------------------------------------------
A: -5555-0000-222210-10-10-10-5555-0000-222210-12-10-9-
E:-------------------------------------------------------

Refrão:
G:----------------------------------------------
D:----------------------------------------------
A:-5-5-5-5---7-7-7-7----------------------------
E:---------------------5-5-5-5--3-5-3-2---------

after chorus, before 2nd Verse
G:-------------------------
D:-------------------------
A:5555-0000-2222-----------
E:---------------3333------

G:-------------------------------
D:-------------------------------
A:-5555-0000-222210-12-10-9-----
E:-------------------------------

Solo:
G:-----------------------------------
D:-----------------------------------
A:-5----------5----------------------
E:---5--7--3----5--7-7-7-7--3-3-3-3—

Refrão:
G:----------------------------------------------
D:----------------------------------------------
A:-5-5-5-5---7-7-7-7----------------------------
E:---------------------5-5-5-5--3-5-3-2---------

The last part: I guess its just another, I guess its just another...
G:----------------------------------------------
D:----------------------------------------------
A:-5-5-5-5---7-7-7-7------------------5---------
E:---------------------5--------3---------------
exibições 43.243
Composição: blink-182 Colaboração e revisão:
  • Gustavo Moser
  • Paulo Cesar

0 comentários

mostrar mais comentários

Conseguiu tocar?

2 tocaram 0 ainda não

Grave um vídeo tocando Carousel e mande pra gente!

00:00 / 00:00
outros vídeos desta música
repetir qualidade Automático
Outros vídeos desta música
00:00 / 00:00
Automático
OK