Enviar cifraEntrar

Dammit

blink-182

Cifra: Principal
exibições 286.873
Tom: C
(Intro)

Riff:

E|-----------------------------------------------------|
B|-----------------------------------------------------|
G|-----------------------------------------------------|
D|------0--0-2-----0--0-2-------0--0-2------2--2-0-----|  (4x)
A|--3-3---------------------0-0------------------------|
E|-------------3-3----------------------1-1------------|


C5           G5          A5              F5
It's alright to tell me what you think about me
C5          G5        A5          F5
I won't try to argue or hold it against you
C5          G5            A5             F5
I know that your leavin' you must have your reasons
C5         G5          A5             F5
the season is calling your pictures are falling down

E|-----------------------------------------------------|
B|-----------------------------------------------------|
G|-----------------------------------------------------|
D|------0--0-2-----0--0-2-------0--0-2------2--2-0-----| 2x 
A|--3-3---------------------0-0------------------------|
E|-------------3-3----------------------1-1------------|


C5             G5             A5                F5
The steps that I retrace the sad look on your face
C5             G5             A5                F5
the timing and structure did you hear he f*cked her
C5             G5             A5             F5
a day late a buck short I'm writing the report
C5             G5             A5                F5
on losing and failing when I move I'm flailing now

C5                          G5                   A5
And it's happened once again I'll turn to a friend
                     F5                                  C5
Someone that understands and sees through the master plan
                   G5                               A5
but everybody's gone and I've been here for too long
                      F5
to face this on my own well I guess this is growing up


E|----------------------------------------------|
B|----------------------------------------------|
G|----------------------------------------------|
D|------0-0-2-----0-0-2-------0-0-2------2-2-0--| 2x 
A|--3-3-------------------0-0-------------------|
E|-------------3-3-------------------1-1--------|


C5             G5             A5                F5
And maybe I'll see you at a movie sneek preview
C5             G5             A5                F5
You'll show up and walk by on the arm of that guy
C5             G5             A5                F5
and I'll smile and you'll wave we'll pretend it's ok
C5             G5             A5                F5
this charade it won't last when he's gone I won't come back

C5                          G5                   A5
And it's happened once again I'll turn to a friend
                     F5                              C5
Someone that understands and sees through the master plan
                G5                               A5
but everybody's gone and I've been here for too long
                      F5
to face this on your own well I guess this is growing up


E|-0------0----0------0-----0----0------0----0------0-----0-----|
B|--1---3---1---1---3---1-3---1---1---3---1---1---3---1-3---3-1-|
G|---0-----------0-----------------0-----------0----------------|
D|--------------------------------------------------------------|
A|--------------------------------------------------------------|
E|--------------------------------------------------------------|


E|----------------------------------------------|
B|----------------------------------------------|
G|----------------------------------------------|
D|------0-0-2-----0-0-2-------0-0-2------2-2-0--|  4x
A|--3-3-------------------0-0-------------------|
E|-------------3-3-------------------1-1--------|
  • 1
  • 2
  • 3
  • 4
  • 5
  • 6
  • 7
  • 8
  • 9
  • 10
  • 11
  • 12

    0 comentários

      mostrar mais comentários

      Conseguiu tocar?

      46tocaram0ainda não

      Grave um vídeo tocando Dammit e mande pra gente!

      00:00 / 00:00
      outros vídeos desta música
      repetirqualidadeautomática
      • automática
      Outro vídeos desta música
        00:00 / 00:00
        automática
        • automática
        1 versão de Tab de bateriaexibiçõescontribuições
        1 versão de Tab de gaitaexibiçõescontribuições
        4 versões de Guitar Proformatodownloadscontribuição
        fecharplay/pause subir/descer velocidade
          acordes
          fechar
          OK
          Feedback