Cifra Club

Aprenda

Dammit

Blink-182

Tab de bateria: Principal
1. Part 1:
                   |----Play 2x-----|
   1 + 2 + 3 + 4 + |1 + 2 + 3 + 4 + |1 + 2 + 3 + 4 +  
C |s---x-----------|----------------|----s-------x---|
H |------s-s-s---s-|s-s---s-s-s---s-|s-s---s-s-s---s-|
S |----o-------o---|----o-------o---|----o-------o---|
B |o-------o-o-----|o-o-----o-o-----|o-o-----o-o-----|

  |----Play 3x-----|
  |1 + 2 + 3 + 4 + |1 + 2 + 3 + 4 +  
C |----------------|------------s---|
H |--s---s-s-s---s-|s-s---s-s-s---s-|
S |----o-------o---|----o-------o---|
B |o-o-----o-o-----|o-o-----o-o-----|


2. Part 2 (Verse):
                   |----Play 4x-----|
   1 + 2 + 3 + 4 + |1 + 2 + 3 + 4 + |
C |x---------------|----------------|
H |--x-x-x-x-x-x-x-|x-x-x-x-x-x-x-x-|
S |----o-------o---|----o-------o---|
B |o-o-----o-o-----|o-o-----o-o-----|

   1 + 2 + 3 + 4 +  1 + 2 + 3 + 4 +  1 + 2 + 3 + 4 + 
H |x-s-s-s-s-s-s-s-|s-s-s-s-s-s-s-s-|----------------|
T |----------------|----------------|3-3-3-3-3-3-3-3-|
S |----o-------o---|----o-------o---|o-o-o-o-o-o-o-o-|
B |o-o-----o-o-----|o-o-----o-o-----|----------------|


3. Part 3 (on Ride):
                   |----Play 2x-----|                 
   1 + 2 + 3 + 4 + |1 + 2 + 3 + 4 + |1 + 2 + 3 + 4 +  
C |s---x-----------|----------------|x-----x-----x---|
R |------x-x-x-x-x-|x-x-x-x-x-x-x-x-|----------------| Play
S |----o-------o---|----o-------o---|o-----o-----o---|  2x
B |o-------o-o-----|o-o-----o-o-----|--o-o---o-o-----|


4. Repeat Part 1
5. Repeat Part 2
6. Repeat Part 3


7. Part 4 (Chorus):

   1 + 2 + 3 + 4 +  1 + 2 + 3 + 4 +  
C |x---------------|----------------|
H |--------t-------|t-------t-------|
S |--------o-------|--o-----o-------|
B |o---o-o-----o-o-|o---o-o-----o-o-|

   1 + 2 + 3 + 4 +  1 + 2 + 3 + 4 +  
C |x---------------|----------------|
H |--------t-------|t-------t-------|
S |--------o-------|--o-----o-----o-|
B |o---o-o-----o-o-|o---o-o-----o---|

   1 + 2 + 3 + 4 +  1 + 2 + 3 + 4 +  
C |x---------------|----------------|
H |--------t-------|t-------t-------|
T |----------------|--3-3-3-3-3-3-3-|
S |--o-----o-------|--o-o-o-o-o-o-o-|
B |o---o-o---------|----------------|

   1 + 2 + 3 + 4 +  1 + 2 + 3 + 4 +  
C |s---x-----------|----------------|
R |------x-x-x-x-x-|x-x-x-x-x-x-x-x-|
S |----o-------o---|----o-------o---|
B |o-------o-o---o-|--o-----o-o-----|


8.  Repeat Part 4

9.  Repeat Part 1
10. Repeat Part 2
11. Repeat Part 3

12. Repeat Part 4
13. Repeat Part 4 (except beat 4 on last measure
                   has a splash cymbal)

14. Part 5 (Slow Part):

   1 + 2 + 3 + 4 +  1 + 2 + 3 + 4 + 
H |----f-------f---|----f-------f---|
T |----1-1-----3-3-|----2-2-----3-3-|
B |o-o-----o-o-----|o-o-----o-o-----|

   1 + 2 + 3 + 4 +  1 + 2 + 3 + 4 + 
C |----x-----------|----------------|
H |----f-------f---|----f-------f---|       (Somehow make snare drum
R |x---------------|----------------| Play   change pitch for each
T |------------3-3-|----2-2-----3-3-|  6x    repeat)
S |----O-o---------|----------------|
B |o-o-----o-o-----|o-o-----o-o-----|

   1 + 2 + 3 + 4 +  1 + 2 + 3 + 4 + 
H |----f-------f---|----f-------f---| (Toms on these two measures are
T |----------1-1-2-|2-3-3-3---------|  approximations)
S |o-o-o-o-o-------|--------oooooooo|


15. Repeat Part 1


16. Outro (With Bell of Ride):
                   |----Play 2x-----|
   1 + 2 + 3 + 4 + |1 + 2 + 3 + 4 + |1 + 2 + 3 + 4 +  
C |s---------------|----------------|------------x---|
R |----x-x-x-x-x-x-|x-x-x-x-x-x-x-x-|x-x-x-x-x-x-----|
S |----o-------o---|----o-------o---|----o-------o---|
B |o-------o-o-----|o-o-----o-o-----|o-o-----o-o-----|

                   |----Play 2x-----|
   1 + 2 + 3 + 4 + |1 + 2 + 3 + 4 + |1 + 2 + 3 + 4 +  
C |x---x-----------|----------------|x-----x-----x---|
R |------x-x-x-x-x-|x-x-x-x-x-x-x-x-|----------------|
S |----o-------o---|----o-------o---|o-----o-----o---|
B |o-------o-o-----|o-o-----o-o-----|--o-o---o-o-----|

   1 + 2 + 3 + 4 +
C |s---------------|
B |o---------------|

End



Versão 2
--------
Blink 182
"Dammit"
enviado por cyrlene@zipmail.com.br 


1. Part 1:
                   |----Play 2x-----|
   1 + 2 + 3 + 4 + |1 + 2 + 3 + 4 + |1 + 2 + 3 + 4 +  
C |s---x-----------|----------------|----s-------x---|
H |------s-s-s---s-|s-s---s-s-s---s-|s-s---s-s-s---s-|
S |----o-------o---|----o-------o---|----o-------o---|
B |o-------o-o-----|o-o-----o-o-----|o-o-----o-o-----|


  |----Play 3x-----|
  |1 + 2 + 3 + 4 + |1 + 2 + 3 + 4 +  
C |----------------|------------s---|
H |--s---s-s-s---s-|s-s---s-s-s---s-|
S |----o-------o---|----o-------o---|
B |o-o-----o-o-----|o-o-----o-o-----|


2. Part 2 (Verse):
                   |----Play 4x-----|
   1 + 2 + 3 + 4 + |1 + 2 + 3 + 4 + |
C |x---------------|----------------|
H |--x-x-x-x-x-x-x-|x-x-x-x-x-x-x-x-|
S |----o-------o---|----o-------o---|
B |o-o-----o-o-----|o-o-----o-o-----|


   1 + 2 + 3 + 4 +  1 + 2 + 3 + 4 +  1 + 2 + 3 + 4 + 
H |x-s-s-s-s-s-s-s-|s-s-s-s-s-s-s-s-|----------------|
T |----------------|----------------|3-3-3-3-3-3-3-3-|
S |----o-------o---|----o-------o---|o-o-o-o-o-o-o-o-|
B |o-o-----o-o-----|o-o-----o-o-----|----------------|


3. Part 3 (on Ride):
                   |----Play 2x-----|                 
   1 + 2 + 3 + 4 + |1 + 2 + 3 + 4 + |1 + 2 + 3 + 4 +  
C |s---x-----------|----------------|x-----x-----x---|
R |------x-x-x-x-x-|x-x-x-x-x-x-x-x-|----------------| Play
S |----o-------o---|----o-------o---|o-----o-----o---|  2x
B |o-------o-o-----|o-o-----o-o-----|--o-o---o-o-----|


4. Repeat Part 1
5. Repeat Part 2
6. Repeat Part 3


7. Part 4 (Chorus):


   1 + 2 + 3 + 4 +  1 + 2 + 3 + 4 +  
C |x---------------|----------------|
H |--------t-------|t-------t-------|
S |--------o-------|--o-----o-------|
B |o---o-o-----o-o-|o---o-o-----o-o-|


   1 + 2 + 3 + 4 +  1 + 2 + 3 + 4 +  
C |x---------------|----------------|
H |--------t-------|t-------t-------|
S |--------o-------|--o-----o-----o-|
B |o---o-o-----o-o-|o---o-o-----o---|


   1 + 2 + 3 + 4 +  1 + 2 + 3 + 4 +  
C |x---------------|----------------|
H |--------t-------|t-------t-------|
T |----------------|--3-3-3-3-3-3-3-|
S |--o-----o-------|--o-o-o-o-o-o-o-|
B |o---o-o---------|----------------|


   1 + 2 + 3 + 4 +  1 + 2 + 3 + 4 +  
C |s---x-----------|----------------|
R |------x-x-x-x-x-|x-x-x-x-x-x-x-x-|
S |----o-------o---|----o-------o---|
B |o-------o-o---o-|--o-----o-o-----|


8.  Repeat Part 4


9.  Repeat Part 1
10. Repeat Part 2
11. Repeat Part 3


12. Repeat Part 4
13. Repeat Part 4 (except beat 4 on last measure
                   has a splash cymbal)


14. Part 5 (Slow Part):


   1 + 2 + 3 + 4 +  1 + 2 + 3 + 4 + 
H |----f-------f---|----f-------f---|
T |----1-1-----3-3-|----2-2-----3-3-|
B |o-o-----o-o-----|o-o-----o-o-----|


   1 + 2 + 3 + 4 +  1 + 2 + 3 + 4 + 
C |----x-----------|----------------|
H |----f-------f---|----f-------f---|       (Somehow make snare drum
R |x---------------|----------------| Play   change pitch for each
T |------------3-3-|----2-2-----3-3-|  6x    repeat)
S |----O-o---------|----------------|
B |o-o-----o-o-----|o-o-----o-o-----|


   1 + 2 + 3 + 4 +  1 + 2 + 3 + 4 + 
H |----f-------f---|----f-------f---| (Toms on these two measures are
T |----------1-1-2-|2-3-3-3---------|  approximations)
S |o-o-o-o-o-------|--------oooooooo|


15. Repeat Part 1


16. Outro (With Bell of Ride):
                   |----Play 2x-----|
   1 + 2 + 3 + 4 + |1 + 2 + 3 + 4 + |1 + 2 + 3 + 4 +  
C |s---------------|----------------|------------x---|
R |----x-x-x-x-x-x-|x-x-x-x-x-x-x-x-|x-x-x-x-x-x-----|
S |----o-------o---|----o-------o---|----o-------o---|
B |o-------o-o-----|o-o-----o-o-----|o-o-----o-o-----|


                   |----Play 2x-----|
   1 + 2 + 3 + 4 + |1 + 2 + 3 + 4 + |1 + 2 + 3 + 4 +  
C |x---x-----------|----------------|x-----x-----x---|
R |------x-x-x-x-x-|x-x-x-x-x-x-x-x-|----------------|
S |----o-------o---|----o-------o---|o-----o-----o---|
B |o-------o-o-----|o-o-----o-o-----|--o-o---o-o-----|


   1 + 2 + 3 + 4 +
C |s---------------|
B |o---------------|




Contribuição: Lucas Luz (lucas.luz@plug-in.com.br)
Composição de Mark Hoppus / Scott Mad Dog Raynor / Tom DeLonge
16.895 exibições

0 comentários

Mostrar mais comentários

Conseguiu tocar?

0 Tocaram 0 Ainda não

Grave um vídeo tocando Dammit e mande pra gente!

00:00 / 00:00
outros vídeos desta música
repetir qualidade Automático
Outros vídeos desta música
00:00 / 00:00
Automático

Cifra Club Pro

Aproveite o Cifra Club com benefícios exclusivos e sem anúncios
7 dias grátis
Cifra Club Pro
Aproveite o Cifra Club com benefícios exclusivos e sem anúncios
7 dias grátis
OK