Cifra Club

Down

blink-182

Cifra: Principal (violão e guitarra)
Tom: B
Intro:  B


      B         G#        A#        F#
E|---------------------------------------|
B|---------------------------------------|
G|---(4)---------------------------------|
D|---(4)-------(6)-------(8)-------(4)---|
A|---(2)-------(6)-------(8)-------(4)---|
E|-------------(4)-------(6)-------(2)---|

B   G#  A# 
The drops of rain they fall all over
this awkward silence makes me crazy
the glow inside burns light upon her
I'll try to kiss you if you let me
(this can't be the end)

G#    A#    B     F# 
Tidal waves they rip right through me
tears from eyes worn cold and sad
pick me up now, I need you so bad

B (varias vezes)
Down down down down
down down down down
down down down down
down down down down
(it gets me so) 

down down down down
down down down down
down down down down
down down down down
(it gets me so)

B   G#   A# 
Your vows of silence fall all over
the look in your eyes makes me crazy
I feel the darkness break upon her
I'll take you over if you let me
(you did this)

G#    A#    B    F# 
Tidal waves they rip right through me
tears from eyes worn cold and sad
pick me up now, I need you so bad

B (varias vezes)
Down down down down
down down down down
down down down down
down down down down
(it gets me so)
down down down down
down down down down
down down down down
down down down down
(it gets me so)

Finalização:

e|-----7~~----------7~~----|
B|---7~~---7~~----------7~~|
G|-4~~----------4~~--------| 
D|-------------------------| 
A|-------------------------|
E|-------------------------|  

Obs: esse ~~ significa que é pra você deixar o dedo apertado.
exibições 119.611
Acordes para:
    Composição: blink-182 Colaboração e revisão:
    • Gabriel Paes
    • Guilherme Manoel

    0 comentários

    mostrar mais comentários

    Conseguiu tocar?

    9 tocaram 0 ainda não

    Grave um vídeo tocando Down e mande pra gente!

    00:00 / 00:00
    outros vídeos desta música
    repetir qualidade Automático
    Outros vídeos desta música
    00:00 / 00:00
    Automático
    OK