Cifra Club

Enthused

blink-182

Cifra: Principal (violão e guitarra)
Tom: D
Em primeiro lugar as notas:

   D   A   B   G   E   A*  G*  

e|-----------------------------------------------|
B|-------------------------8---------------------|
G|-7---------------9---6---7---------------------|
D|-7---7---9---5---9---7---5---------------------|
A|-5---7---9---5---7---7---5---------------------|
E|-----5---7---3-------5-------------------------|

   D8  E8 C#8  B8  A8  G8  G**8  A**

e|-----------------------------------------------|
B|-----------------------------------------------|
G|-7---9---6---4-------12------------------------|
D|-x---x---x---x---7---x----5-----7--------------|
A|-5---7---4---2---x---10---x-----4--------------|
E|-----------------5--------3-----5--------------|


Riff 1 

e|-----------------------------------------------|
B|-----------------------------------------------|
G|-----------------------------------------------|
D|-5-4-0------5-4-0------------------------------|
A|-----------------------------------------------|
E|-----------------------------------------------|

Riff 2

e|----------------------------------------------|
B|-----------8------7---------------------------|
G|-7---------7--2x--7---------------------------|
D|-7--8x-----5------5--5------------------------|
A|-5-------------------5------------------------|
E|----------------------------------------------|  


Riff 3


e|----------------------------------------------|
B|----------------------------------------------|
G|--7--(6)--7--(6)--7--7--(6)--7--6-------------|
D|----------------------------------------------|
A|----------------------------------------------|
E|----------------------------------------------| 

e|----------------------------------------------|
B|----------------------------------------------|
G|--7--(6)--7--(6)--7--9--(7)--9--6-------------|
D|----------------------------------------------|
A|----------------------------------------------|
E|----------------------------------------------|

() = Paml muted


INTRO:


D  -  Riff 1


A  -  Riff 1


B - A - G


D  -  Riff 1


E  -  Riff 1


B  -  A  -  G (deixa o G tocar)


Riff 2 (2x)  -  E  -  D  -  E (ISSO 2x) e ai entra o solo:


Riff 3 (2x)


D  -  A*  -  G*  -  E

Am I strung out, crazy, or not allowed 
To be the one who gets stupid over you 
Lazy (lazy), laid back (laid back), maybe 
you're just on crack 
Why am I the one who gets fucked up and confused? 
(Go)



D8  -  E8  -  D8  -  C#8  -  B8  -  A8  (2x)



D8 / E8  -  D8  (3x)  -  E8  -  G8

D8 / E8  -  D8  (3x)  -  A8  -  G**8

/  = Slide



Riff 3  (4x)

She doesn't care at all 
She doesn't care at all 
She doesn't care about those times we never shared at all



D8  -  E8  -  D8  -  C#8  -  B8  -  A8  (2x)


D8 / E8  -  D8  (3x)  -  E8  -  G8

D8 / E8  -  D8  (3x)  -  A8  -  G**8



D  -  A**  -  B  -  G

If I were the last of the few who always ask 

D  -  A**  -  (B)  -  (G)

Would you still be the same person that I knew 

D  -  A**  -  B

And if it's for me, another boring story 

D  -  A**  -  B  -  G

I swear I'll act enthused



D  -  Riff 1


A  -  Riff 1


B - A - G


D  -  Riff 1


E  -  Riff 1


B  -  A  -  D
exibições 6.930
Acordes para:
    Composição: blink-182 Colaboração e revisão:
    • Guilherme Nunes

    0 comentários

    mostrar mais comentários

    Conseguiu tocar?

    0 tocaram 0 ainda não

    Grave um vídeo tocando Enthused e mande pra gente!

    00:00 / 00:00
    outros vídeos desta música
    repetir qualidade Automático
    Outros vídeos desta música
    00:00 / 00:00
    Automático
    OK