Cifra Club

Aprenda

Man Overboard

Blink-182

Cifra: Principal (violão e guitarra)
Tom: G
(intro 2x) G5 A5 C5

(riff intro)
|--------------------------------------------------------------------|
|--------------------------------------------------------------------|
|--------------------------------------------------------------------|
|--------------------------------------------------------------------|
|-----5---3---2---------5---3---2--------5---3---2---3---2---3---2---|
|-3-3---3---3---3---3-3---3---3---3--3-3---3---3---3---3---3---3---3-|

*(2x) Antes da 1ª parte, e (4x) durante a 1ª parte

G5         A5       C5
  So sorry, it's over
G5         A5       C5
  So sorry, it's over
G5         A5       C5
 (So sorry, it's over...)
        G5                   A5
There's so much more that I wanted and
G5         A5       C5
 (So sorry, it's over...)
        C5
There's so much more that I needed and
G5         A5       C5
 (So sorry, it's over...)
G5                A5            C5
Time keeps moving on and on and on
D5
Soon we'll all be gone

(riff Meio #1 - 2x)
|-----------------------------------------|
|-----------------------------------------|
|-----------------------------------------|
|-----------------------------------------|
|-----2-3-2-0-2-3-2-0-----2-3-2-0-2-3-2-0-|
|-3-3-----------------0-0-----------------|

(riff Meio #2 - 4x)
|---------------------|
|---------------------|
|---------------------|
|-5-5-----------2-----|
|-----2-3-5-5-5---5-3-|
|---------------------|

G5
Let's take some time to talk this over
E5                      C5
You're out of line and rarely sober
G5
We can't depend on your excuses
E5                      C5
'Cause in the end it's fucking useless

G5               D5
You can only lean on me for so long
E5                  C5
Bring the ship about to watch a friend drown
G5                  D5
Sit out on the ledge, begged you to come down
E5               C5
You can only lean on me for so long

(riff intro 1x)

G5
I remember shots without a chaser
E5                    C5
Absent minded thoughts, now you're a stranger
G5
Cover up the scars put on your gameface
E                  C5
Left you in the bar, to try and save face

G5               D5
You can only lean on me for so long
E5                  C5
Bring the ship about to watch a friend drown
G5                  D5
Sit out on the ledge, begged you to come down
E5               C5
You can only lean on me for so long

G5         A5       C5
  So sorry, it's over
G5         A5       C5
  So sorry, it's over
G5         A5       C5
 (So sorry, it's over...)
        G5                   A5
There's so much more that I wanted and
G5         A5       C5
 (So sorry, it's over...)
        C5
There's so much more that I needed and
G5         A5       C5
 (So sorry, it's over...)
G5                A5            C5
Time keeps moving on and on and on
D5
Soon we'll all be gone

(riff Meio #1 - 2x)
(riff Meio #2 - 4x)

G5               C5
Man on a mission, can't say I miss him around
G5      A5         C5
Insider information, hand in your resignation
G5                   C5
Loss of a good friend, best of intentions I found
G5               A5
Tight lipped procrastination
C5      D5         G5
Ya later, see you around
Composição de Mark Hoppus / Tom DeLonge
Colaboração e revisão:
  • Gustavo Munhoz
  • XX XX
82.252 exibições
    • ½ Tom
    • A
    • Bb
    • B
    • C
    • Db
    • D
    • Eb
    • E
    • F
    • F#
    • G
    • Ab
  • Adicionar à lista

    0 comentários

    Mostrar mais comentários

    Conseguiu tocar?

    5 Tocaram 0 Ainda não

    Grave um vídeo tocando Man Overboard e mande pra gente!

    00:00 / 00:00
    outros vídeos desta música
    repetir qualidade Automático
    Outros vídeos desta música
    00:00 / 00:00
    Automático

    Cifra Club Pro

    Aproveite o Cifra Club com benefícios exclusivos e sem anúncios
    7 dias grátis
    Cifra Club Pro
    Aproveite o Cifra Club com benefícios exclusivos e sem anúncios
    7 dias grátis
    OK