Cifra Club

Mutt

blink-182

Cifra: Principal (violão e guitarra)
Tom: D
[Introdução]

E|---------------------------------------------------------------|
B|---------------------------------------------------------------|
G|----6-------6-------6-------6-------6-------6-------6-------6--|
D|-7-------7-------7-------7-------7-------7-------7-------7-----|
A|------7-------7-------7-------7-------7-------7-------7-------7|
E|---------------------------------------------------------------|

[Verso 01]

Riff 1 
E|------------------------------------------------------------|
B|------------------------------------------------------------|
G|-----2-----2-----2h4-----2h4-----6-----6------2h4------2h4--|
D|------------------------------------------2-2------2-2------|
A|-0-0---0-0---0-0-----0-0-----0-4---4-4----------------------|
E|------------------------------------------------------------|
pm....   ...   ...     ...     ...   ...   ...     ...

He pauses shaving and he tells himself that he is the bomb
She has her curlers set, her credit cards are paying the funds

A5                           F#5
He's not that old, I've been told
         E5
A strong sexual goal
A5
She goes out every day
F#5      E5             D5
She goes every way...oh yeah!
               E5        
And they don't even care at all

[Refrão]

    A5                          B5              D5   A/C#
E|----------------------------------------------------------|
B|----------------------------------------------------------|
G|----------------------------------------------------------|
D|--7--7-7-7-7-7--7--7-7-7-7-7---7--7-7-7-7-7---7-7---7-7---|
A|--x--x-x-x-x-x--x--x-x-x-x-x---x--x-x-x-x-x---5-5---4-4---|
E|--5--5-5-5-5-5--5--5-5-5-5-5---7--7-7-7-7-7---------------|

A5                       B5    D5 
She's open waiting for more
 A/C#      A5                      B5     D5                                
And I know he's only looking to score
A/C#     A5                                
And it's way too unhealthy
B5            D5   A/C#                               
Often they've typically
A5                             B5       D5   A/C#                       
Been starved for attention before

[Introdução]

E|---------------------------------------------------------------|
B|---------------------------------------------------------------|
G|----6-------6-------6-------6-------6-------6-------6-------6--|
D|-7-------7-------7-------7-------7-------7-------7-------7-----|
A|------7-------7-------7-------7-------7-------7-------7-------7|
E|---------------------------------------------------------------|

[Verso 02]

Riff 1 
E|------------------------------------------------------------|
B|------------------------------------------------------------|
G|-----2-----2-----2h4-----2h4-----6-----6------2h4------2h4--|
D|------------------------------------------2-2------2-2------|
A|-0-0---0-0---0-0-----0-0-----0-4---4-4----------------------|
E|------------------------------------------------------------|
pm....   ...   ...     ...     ...   ...   ...     ...

She smokes a dozen and he doesn't seem to notice the smell
He took the seat off his own bike because of the way that it felt

A5                       F#5
He wants to bone, this I know
       E5
She is ready to blow
A5                
They go out every night
F#5           E5               D5
His pants are super tight...oh yeah!
               E5         
And they don't even care at all


[Refrão]

    A5                          B5              D5   A/C#
E|----------------------------------------------------------|
B|----------------------------------------------------------|
G|----------------------------------------------------------|
D|--7--7-7-7-7-7--7--7-7-7-7-7---7--7-7-7-7-7---7-7---7-7---|
A|--x--x-x-x-x-x--x--x-x-x-x-x---x--x-x-x-x-x---5-5---4-4---|
E|--5--5-5-5-5-5--5--5-5-5-5-5---7--7-7-7-7-7---------------|

A5                       B5    D5 
She's open waiting for more
 A/C#      A5                      B5     D5                                
And I know he's only looking to score
A/C#     A5                                
And it's way too unhealthy
B5            D5   A/C#                               
Often they've typically
A5                             B5       D5   A/C#                       
Been starved for attention before

[Ponte]

E|-----------------------------------|
B|-----------------------------------|
G|-----------------------------------|
D|----------4-4-----7-7---7-7--------| 2x
A|--7-7-----2-2-----5-5---4-4--------|
E|--5-5------------------------------|

PM  * *     * *     * *   * *

E|-----------------------------------------|
B|-----------------------------------------|
G|----6-------6-------6-------6-------6----|
D|-7-------7-------7-------7-------7-------|
A|------7-------7-------7-------7-------7--|
E|-----------------------------------------|


[Refrão]

    A5                          B5              D5   A/C#
E|----------------------------------------------------------|
B|----------------------------------------------------------|
G|----------------------------------------------------------|
D|--7--7-7-7-7-7--7--7-7-7-7-7---7--7-7-7-7-7---7-7---7-7---|
A|--x--x-x-x-x-x--x--x-x-x-x-x---x--x-x-x-x-x---5-5---4-4---|
E|--5--5-5-5-5-5--5--5-5-5-5-5---7--7-7-7-7-7---------------|

A5                       B5    D5 
She's open waiting for more
 A/C#      A5                      B5     D5                                
And I know he's only looking to score
A/C#     A5                                
And it's way too unhealthy
B5            D5   A/C#                               
Often they've typically
A5                             B5       D5   A/C#                       
Been starved for attention before


[Final]

   A5    B5     D5  A/C#  A5     B5     D5  A/C#  A5
E|-------------------------------------------------------|
B|-------------------------------------------------------|
G|-2~~~~--4~~~~--7---6----2~~~~---4~~~~--7---6-----2~~~~-|
D|-2~~~~--4~~~~--7---7----2~~~~---4~~~~--7---7-----2~~~~-|
A|-0~~~~--2~~~~--5---4----0~~~~---2~~~~--5---4-----0~~~~-|
E|-------------------------------------------------------|
exibições 31.769
Acordes para:
    Composição: Mark Hoppus / Tom DeLonge Colaboração e revisão:
    • Renan Luiz
    • Thiago Pena

    0 comentários

    mostrar mais comentários

    Conseguiu tocar?

    2 tocaram 0 ainda não

    Grave um vídeo tocando Mutt e mande pra gente!

    00:00 / 00:00
    outros vídeos desta música
    repetir qualidade Automático
    Outros vídeos desta música
    00:00 / 00:00
    Automático
    OK