Cifra Club

Aprenda

Peter Gunn Theme

The Blues Brothers

Cifra: Principal (violão e guitarra)
tom: G
this a 100% right


intro
[----------------------------------------------------------------------------|
[----------------------------------------------------------------------------|
[----------------------------------------------------------------------------|
[----------------------------------------------------------------------------|
[------0----------0----------------0----------------0------------------------|
[002030-3---002030-3---------002030-3---------002030-3-----------------------|


[----------------------------------------------------------------------------|
[----------------------------------------------------------------------------|
[----------------------------------------------------------------------------|
[-------0-----------------0--------------------------------------------------|
[-002030-3----------002030-3----------0------------0-------------------------|
[-------------------------------002030-3-----002030-3------------------------|

[--------------------------------------------------------------------0------|
[--------------------------------------------------------------------0------|
[--------------------------------------------------------------------0------|
[--------------------------------------------------------------------2------|
[-222222222200000000000-------------0--------------------------------2------|
[-----------------------------002030-3-------------------------------0------|


that is it i am sorry i do not know the solo
Composição de Henry Mancini
6.248 exibições
    • ½ Tom
    • A
    • Bb
    • B
    • C
    • Db
    • D
    • Eb
    • E
    • F
    • F#
    • G
    • Ab
  • Adicionar à lista

    0 comentários

    Ver todos os comentários

    Conseguiu tocar?

    2 Tocaram 0 Ainda não

    Grave um vídeo tocando Peter Gunn Theme e nos envie!

    00:00 / 00:00
    Outros vídeos desta música
    Repetir Qualidade Automático
    Outros vídeos desta música
    00:00 / 00:00
    Automático

    Cifra Club Pro

    Aproveite o Cifra Club com benefícios exclusivos e sem anúncios
    Cifra Club Pro
    Aproveite o Cifra Club com benefícios exclusivos e sem anúncios
    OK