Cifra Club

Song 2

Blur

Tab de baixo: Principal
exibições 28.521
MAIN RIFF
=========
|-------------------------------|
|-------------------------------|
|----------------0-0-2-4--4-4-4-|
|2-2-2-2-0-0-0-0-5-5-7-9--9-9-9-|


BRIDGE
======
|------------------------------------------------------2-2/7-|
|--------------------------------0-0-0-0-0-0-0-0-0-0-0/7-7/12|
|-----------------0------------------------------------------|
|2-----------------------------------------------------------|
All the time I'm never sure why need you, pleased to meet you.

BASS SOLO                            BASS SOLO II
=========                            ============

|-2---2-------------------|          |-2---2---6----------------|
|---4---4-----------------|          |---4---4------------------|
|----------0-0-2-4--4-4-4-|          |-----------0-0-2-4--4-4-4-|
|-------------------------|          |--------------------------|


STRUCTURE
=========

Rest until "whoo hoo"
MAIN RIFF X4
Rest during verse
MAIN RIFF X3
BRIDGE X1
BASS SOLO X2
Rest during verse
MAIN RIFF X3
BRIDGE X1
BASS SOLO X2
BASS SOLO II X2

ADDED BONUS!!!!
===============
Instesd of resting during verses and the intro, you can play the guitar 
part:

|-----------------2--2--4--6---6--6--6--|
|-4--4---2--2--2--7--7--9--11--11-11-11-|
|-9--9---7--7--7--12-12-14-16--16-16-16-|
|-14-14--12-12-12-----------------------|




_______________________________________________________
Contribuição: Alker(ratherguns@bol.com.br)

0 comentários

    mostrar mais comentários

    Conseguiu tocar?

    4tocaram0ainda não

    Grave um vídeo tocando Song 2 e mande pra gente!

    00:00 / 00:00
    outros vídeos desta música
    repetirqualidadeautomática
    Outro vídeos desta música
      00:00 / 00:00
      automática
      OK