Cifra Club

Aprenda

Song 2

Blur

Tab de baixo: Versão 2
Quer fazer aulas de música com a gente? Responda essas perguntas
e nos ajude nesse projeto! →
Contra-Baixo

Verso
G|-----------------|x4
D|-----------------|
A|----------13-333-|
D|3333111166-------|

G|-----------------|x3 |--------------------------------6\-|
D|-----------------|   |------------------------------6/---|
A|----------13-333-|   |-----------------444444444444------|
D|3333111166-------|   |33333333-66666666------------------|

G|-----------------|x2
D|-----------------|
A|----------13-333-|
D|3333111166-------|

G|-----------------|x3 |--------------------------------6\-|
D|-----------------|   |------------------------------6/---|
A|----------13-333-|   |-----------------444444444444------|
D|3333111166-------|   |33333333-66666666------------------|

G|-----------------|x4
D|-----------------|
A|----------13-333-|
D|3333111166-------|   |-3\-| final
Composição de Alex James / Damon Albarn / Dave Rowntree / Graham Coxon
Colaboração e revisão:
  • Pedro Silveira
4.558 exibições

0 comentários

Ver todos os comentários

Conseguiu tocar?

0 Tocaram 0 Ainda não

Grave um vídeo tocando Song 2 e nos envie!

00:00 / 00:00
Outros vídeos desta música
Repetir Qualidade Automático
Outros vídeos desta música
00:00 / 00:00
Automático

Cifra Club Pro

Aproveite o Cifra Club com benefícios exclusivos e sem anúncios
Cifra Club Pro
Aproveite o Cifra Club com benefícios exclusivos e sem anúncios
OK