Cifra Club

Road Runner

Bo Diddley

Cifra: Principal (violão e guitarra)
Selo Cifra Club: esta cifra foi revisada para atender aos critérios oficiais da nossa Equipe de Qualidade.
tom: C#m
E|------------------------------|
B|------------------------------|
G|------------------------------| x4
D|------------------------2-----|
A|--------------2--2--4---------|
E|--0--0--3--4------------------|

E|------------------------------|
B|------------------------------|
G|------------------------------| x2
D|---------------2--2-----------|
A|--0--0--3--4---------3--4-----|
E|------------------------------|

E|------------------------------|
B|------------------------------|
G|------------------------------| x2
D|------------------------2-----|
A|--------------2--2--4---------|
E|--0--0--3--4------------------|

E|------------------------------|
B|------------------------------|
G|------------------------------|
D|--4--4--4--4--4--4--4--4--2---|
A|--2--2--2--2--2--2--2--2--0---|
E|------------------------------|

Then comes a full 4/4 break. And then comes this part again:

E|----------------------------------------|
B|----------------------------------------|
G|----------------------------------------|
D|------------------------2---------------|
A|--------------2--2--4-------0----1----2-|
E|--0--0--3--4----------------------------|
Outros vídeos desta música
    28 exibições
      • ½ Tom
      • Am
      • Bbm
      • Bm
      • Cm
      • C#m
      • Dm
      • Ebm
      • Em
      • Fm
      • F#m
      • Gm
      • G#m
    • Adicionar à lista

    Afinação da cifra

    Afinador online

      0 comentários

      Ver todos os comentários

      Entre para o Cifra Club PRO

      Tenha acesso a benefícios exclusivos no App e no Site

      • Chega de anúncios

      • Badges exclusivas

      • Mais recursos no app do Afinador

      • Atendimento Prioritário

      • Aumente seu limite de lista

      • Ajude a produzir mais conteúdo

      Cifra Club Pro

      Aproveite o Cifra Club com benefícios exclusivos e sem anúncios
      Cifra Club Pro
      Aproveite o Cifra Club com benefícios exclusivos e sem anúncios
      Ops (: Contenido disponible sólo en portugués.
      OK