Cifra Club

Passport

Bôa (UK)

Cifra: Principal (violão e guitarra)
Selo Cifra Club: esta cifra foi revisada para atender aos critérios oficiais da nossa Equipe de Qualidade.
tom: Em
    Bsus                              Asus
E|--7----7--7--7--7--7----7--7--7--7--5----5--5--5--5--5----5---5|
B|--5----5--5--5--5--5----5--5--5--5--3----3--3--3--3--0h3--0h3-0|
G|--0----0--0--0--0--0----0--0--0--0--0----0--0--0--0--0----0---0|
D|--0----0--0--0--0--0----0--0--0--0--0----0--0--0--0--0----0---0|
A|--7----7--7--7--7--7----7--7--7--7--5----5--5--5--5--5----5---5|
E|--7----7--7--7--7--7----7--7--7--7--5----5--5--5--5--5----5---5|

 N.C.
Am                                Gsus             Asus
E|--0----0--0--0--0--0----0--0--0--0--3----3--3--3--3--5----5--5--5--5|
B|--1----1--1--1--1--1----1--1--1--1--1----1--1--1--1--3----3--3--3--3|
G|--2----2--2--2--2--2----2--2--2--2--0----0--0--0--0--0----0--0--0--0|
D|--2----2--2--2--2--2----2--2--2--2--0----0--0--0--0--0----0--0--0--0|
A|--0----0--0--0--0--0----0--0--0--0--3----3--3--3--3--5----5--5--5--5|
E|------------------------------------3----3--3--3--3--5----5--5--5--5|

    Bsus             Asus    Am Gsus Asus

[Verse 1]
                     I-              walked         into    the        room
E|--------------------------------------------------------------------|
B|--------------------------------------------------------------------|
G|--2----2--2--2--2--2----2--2--2--2--8----8--8--8--8--8----8--8--8--8|
D|--------------------------------------------------------------------|
A|--3----3--3--3--3--3----3--3--3--3--9----9--9--9--9--9----9--9--9--9|
E|--1----1--1--1--1--1----1--1--1--1--7----7--7--7--7--7----7--7--7--7|
    F                                 B


                     I-    saw   things       I'd         never        seen
E|---------------------------------------------------------------------|
B|---------------------------------------------------------------------|
G|--2----2--2--2--2--2----2--2--2--2--8----8--8--8--8--9--9--9--8--8--8|
D|---------------------------------------------------------------------|
A|--3----3--3--3--3--3----3--3--3--3--9----9--9--9--9--10-10-10-9--9--9|
E|--1----1--1--1--1--1----1--1--1--1--7----7--7--7--7--8--8--8--7--7--7|
    F                                 B                C        B


F     B                   F
  The world was different then
        B    C    B    F
We were so young, But oh,

              B           F
How we change   our lives
          B        C    B  F
They can sometimes seem so strange
        B        F
How could you do this
        B    C    B
We were so young

[Chorus]
(Same as intro)
Bsus             Asus     Am  Gsus Asus
      Hold on
Bsus                Asus      Am  Gsus Asus
     I wish that you had held on
Bsus               Asus           Am Gsus Asus
     I wish that I   had been the one
Bsus              Asus     Am Gsus Asus
     To help  you    hold  on


[Verse 2]
F      B         F
   Asleep in the bath
                B        C    B  F
You watched the New Year passing by
       B              F
The fireworks in your hands
           B         C   B   F
You never questioned why But oh,

F         B        F
   tired,    weary
         B    C   B     F
This life can sometimes seem
      B          F
How could you do this
         B    C   B
You were so young


[Chorus]
(Same as intro)
Bsus             Asus     Am  Gsus Asus
      Hold on
Bsus                Asus      Am  Gsus Asus
     I wish that you had held on
Bsus               Asus           Am Gsus Asus
     I wish that I   had been the one
Bsus              Asus     Am Gsus Asus
     To help  you    hold  on


Bsus             Asus     Am  Gsus Asus
      Hold on
Bsus                Asus      Am  Gsus Asus
     I wish that you had held on
Bsus               Asus           Am Gsus Asus
     I wish that I   had been the one
Bsus              Asus     Am Gsus Asus
     To help  you    hold  on


[Bridge]
E|--------------------------------------------------------------------|
B|--------------------------------------------------------------------|
G|--2----2--2--2--2--2----2--2--2--2--8----8--8--8--8--8----8--8--8--8|
D|--------------------------------------------------------------------|
A|--3----3--3--3--3--3----3--3--3--3--9----9--9--9--9--9----9--9--9--9|
E|--1----1--1--1--1--1----1--1--1--1--7----7--7--7--7--7----7--7--7--7|

E|--0----0--0--0--0--0----0--7--0--0--------------------------------------------|
B|--0----0--0--0--0--0----0--0--0--0--------------------------------------------|
G|--0----0--0--0--0--0----0--0--0--0--14----14--14--14--14--14----14--14--14--14|
D|--0----0--0--0--0--0----0--0--0--0--------------------------------------------|
A|--0----0--0--0--0--0----0--0--0--0--15----15--15--15--15--15----15--15--15--15|
E|--7----7--7--7--7--7----7--7--7--7--13----13--13--13--13--13----13--13--13--13|

E|--------------------------------------------------------------------|
B|--------------------------------------------------------------------|
G|--2----2--2--2--2--2----2--2--2--2--8----8--8--8--8--8----8--8--8--8|
D|--------------------------------------------------------------------|
A|--3----3--3--3--3--3----3--3--3--3--9----9--9--9--9--9----9--9--9--9|
E|--1----1--1--1--1--1----1--1--1--1--7----7--7--7--7--7----7--7--7--7|

E|--0----0--0--0--0--0----0--7--0--0--------------------------------------------|
B|--0----0--0--0--0--0----0--0--0--0--------------------------------------------|
G|--0----0--0--0--0--0----0--0--0--0--14----14--14--14--14--14----14--14--14--14|
D|--0----0--0--0--0--0----0--0--0--0--------------------------------------------|
A|--0----0--0--0--0--0----0--0--0--0--15----15--15--15--15--15----15--15--15--15|
E|--7----7--7--7--7--7----7--7--7--7--13----13--13--13--13--13----13--13--13--13|

E|---------------------------------------------------------------------|
B|---------------------------------------------------------------------|
G|--2----2--2--2--2--2----2--2--2--2--8----8--8--8--8--9--9--9--8--8--8|
D|---------------------------------------------------------------------|
A|--3----3--3--3--3--3----3--3--3--3--9----9--9--9--9--10-10-10-9--9--9|
E|--1----1--1--1--1--1----1--1--1--1--7----7--7--7--7--8--8--8--7--7--7|


[Chorus]
(Same as intro)
Bsus             Asus     Am  Gsus Asus
      Hold on
Bsus                Asus      Am  Gsus Asus
     I wish that you had held on
Bsus               Asus           Am Gsus Asus
     I wish that I   had been the one
Bsus              Asus     Am Gsus Asus
     To help  you    hold  on


[Outro]
Bsus             Asus    Am Gsus Asus
Bsus             Asus    Am Gsus Asus
Bsus             Asus    Am Gsus Asus
Bsus             Asus    Am Gsus Asus

Bsus             Asus    Am Gsus Asus
Bsus             Asus    Am Gsus Asus
Bsus             Asus    Am Gsus Asus
Bsus             Asus    Am Gsus Asus

Bsus             Asus    Am Gsus Asus
Bsus             Asus    Am Gsus Asus
Bsus             Asus    Am Gsus Asus
Bsus             Asus    Am Gsus Asus

Bsus             Asus    Am Gsus Asus
F
Outros vídeos desta música
    53 exibições
      • ½ Tom
      • Am
      • Bbm
      • Bm
      • Cm
      • C#m
      • Dm
      • Ebm
      • Em
      • Fm
      • F#m
      • Gm
      • G#m
    • Adicionar à lista

    Afinação da cifra

    Afinador online

      0 comentários

      Ver todos os comentários

      Conseguiu tocar?

      0Tocaram0Ainda não

      Grave um vídeo tocando Passport e nos envie!

      Toque também

      1. Imagem do artista MonoralKiri Monoral
      2. Imagem do artista Steve ConteCould You Bite The Hand Steve Conte
      3. Imagem do artista Fuja LurdesTão Só Fuja Lurdes
      4. Imagem do artista Fuja LurdesImaginar Fuja Lurdes

      Entre para o Cifra Club PRO

      Tenha acesso a benefícios exclusivos no App e no Site

      • Chega de anúncios

      • Badges exclusivas

      • Mais recursos no app do Afinador

      • Atendimento Prioritário

      • Aumente seu limite de lista

      • Ajude a produzir mais conteúdo

      Cifra Club Pro

      Aproveite o Cifra Club com benefícios exclusivos e sem anúncios
      Cifra Club Pro
      Aproveite o Cifra Club com benefícios exclusivos e sem anúncios
      OK