Cifra Club

Aprenda

Tema

Bob Esponja (Spongebob Squarepants)

Cifra: Aula-ukulele (violão e guitarra)
tom: G
[Intro]

A|----3---3-----3---3-----3---3-----3---3--------------|
E|----5---5-----5---5-----5---5-----5---5--------------|
C|-5~---0----5~---0----5~---0----5~---0----------------|
G|-----------------------------------------------------|

[Primeira Parte]

A|-3-2-3-5-3-------3---3-------------------------------|
E|-----5-----5-----5---5-------------------------------|
C|-5-------0----5~---0---------------------------------|
G|-----------------------------------------------------|

A|-3-2-3-5-3-------8---8-------------------------------|
E|-----5-----5-----5---5-------------------------------|
C|-5-------0----5--5---5-------------------------------|
G|-----------------5---5-------------------------------|
                   ↓   ↓
[Segunda Parte]

A|-10-12-10-12-10---x---8---8--------------------------|
E|--9--9--9--9--9---x---5---5--------------------------|
C|--9--9--9--9--9---x---5---5--------------------------|
G|--9--9--9--9--9---x---5---5--------------------------|
    ↓  ↑  ↓  ↑  ↓       ↓   ↓

A|-10-11-11-11-10-8------------------------------------|
E|----10-10-10-----------------------------------------|
C|----10-10-10-----------------------------------------|
G|-----------------------------------------------------|

A|-3-2-3-5-3----3-2-3-5-3--7--7/8------------------------|
E|-----5-----5----------------5--------------------------|
C|-5-------0----4---6---0-----5--------------------------|
G|----------------------------5--------------------------|
                              ↓
Compositor não encontrado.
Colaboração e revisão:
  • Lucas Kappaun
5.673 exibições
    • ½ Tom
    • A
    • Bb
    • B
    • C
    • Db
    • D
    • Eb
    • E
    • F
    • F#
    • G
    • Ab
  • Adicionar à lista

    0 comentários

    Ver todos os comentários

    Conseguiu tocar?

    5 Tocaram 3 Ainda não

    Grave um vídeo tocando Tema e nos envie!

    00:00 / 00:00
    Outros vídeos desta música
    Repetir Qualidade Automático
    Outros vídeos desta música
    00:00 / 00:00
    Automático
    Capítulos
    • Tocando a Música
    • Apresentação / Equipamentos
    • Tocando Introdução
    • Ensinando Introdução
    • Tocando Primeira Parte
    • Ensinando Primeira Parte
    • Tocando Segunda Parte
    • Ensinando Segunda Parte
    • Encerramento

    Cifra Club Pro

    Aproveite o Cifra Club com benefícios exclusivos e sem anúncios
    Cifra Club Pro
    Aproveite o Cifra Club com benefícios exclusivos e sem anúncios
    OK