Cifra Club

Get Up Stand Up

Bob Marley

Tab de baixo: Principal
exibições 57.222
Introdução

Parte 1

G|--------------------------------------------|
D|-8-8--8-8--8-10--8-8--8-8-------------------|
A|--------------------------------------------|
E|--------------------------------------------|
B|--------------------------------------------|

Refrão ( Groove 01 )

Get up, stand up: stand up for your rights! 

Parte 1 

G|--------------------------------------------|
D|------5--------------5----------------------|
A|-1-3----6-5-6-5-3--3------1-----------------|
E|-----------------------3--------------------|
B|--------------------------------------------|

Parte 2

G|--------------------------------------------|
D|----5-------------------5--3----------------|
A|-3----6-5-6-5-3--3-3--3---------------------|
E|--------------------------------------------|
B|--------------------------------------------|

Parte 3

G|--------------------------------------------|
D|------5--------------5----------------------|
A|-1-3----6-5-6-5-3--3------1-----------------|
E|-----------------------3--------------------|
B|--------------------------------------------|

Parte 4

G|--------------------------------------------|
D|----5-------------------5--3----------------|
A|-3----6-5-6-5-3--3-3--3---------------------|
E|--------------------------------------------|
B|--------------------------------------------|

Primeira parte ( Groove 2 )

Preacherman, don't tell me...

Parte 1

G|----------8---------------------------------|
D|------5-8----8-----5------------------------|
A|-3--6----------6-8--------------------------|
E|---------------------6-8--------------------|
B|--------------------------------------------|

Parte 2 ( tocar 3x )

G|---------8----------------------------------|
D|-----5-8---8-----5--------------------------|
A|---6---------6-8----------------------------|
E|-8-----------------6-8----------------------|
B|--------------------------------------------|

Refrão 2( Groove 01 )

Get up, stand up: stand up for your rights! 

Parte 1 

G|--------------------------------------------|
D|------5--------------5----------------------|
A|-1-3----6-5-6-5-3--3------1-----------------|
E|-----------------------3--------------------|
B|--------------------------------------------|

Parte 2

G|--------------------------------------------|
D|----5-------------------5--3----------------|
A|-3----6-5-6-5-3--3-3--3---------------------|
E|--------------------------------------------|
B|--------------------------------------------|

Parte 3

G|--------------------------------------------|
D|------5--------------5----------------------|
A|-1-3----6-5-6-5-3--3------1-----------------|
E|-----------------------3--------------------|
B|--------------------------------------------|

Parte 4

G|--------------------------------------------|
D|----5-------------------5--3----------------|
A|-3----6-5-6-5-3--3-3--3---------------------|
E|--------------------------------------------|
B|--------------------------------------------|

Segunda parte ( Groove 2 )

Most people think...

Parte 1

G|----------8---------------------------------|
D|------5-8----8-----5------------------------|
A|-3--6----------6-8--------------------------|
E|---------------------6-8--------------------|
B|--------------------------------------------|

Parte 2 ( tocar 3x )

G|---------8----------------------------------|
D|-----5-8---8-----5--------------------------|
A|---6---------6-8----------------------------|
E|-8-----------------6-8----------------------|
B|--------------------------------------------|

Refrão 3 ( Groove 01 )

Get up, stand up: stand up for your rights! 

Parte 1 

G|--------------------------------------------|
D|------5--------------5----------------------|
A|-1-3----6-5-6-5-3--3------1-----------------|
E|-----------------------3--------------------|
B|--------------------------------------------|

Parte 2

G|--------------------------------------------|
D|----5-------------------5--3----------------|
A|-3----6-5-6-5-3--3-3--3---------------------|
E|--------------------------------------------|
B|--------------------------------------------|

Parte 3

G|--------------------------------------------|
D|------5--------------5----------------------|
A|-1-3----6-5-6-5-3--3------1-----------------|
E|-----------------------3--------------------|
B|--------------------------------------------|

Parte 4

G|--------------------------------------------|
D|----5-------------------5--3----------------|
A|-3----6-5-6-5-3--3-3--3---------------------|
E|--------------------------------------------|
B|--------------------------------------------|

Terceira parte ( Groove 2 )

We sick an' tired of-a your ism-skism game...

Parte 1

G|----------8---------------------------------|
D|------5-8----8-----5------------------------|
A|-3--6----------6-8--------------------------|
E|---------------------6-8--------------------|
B|--------------------------------------------|

Parte 2 ( tocar 3x )

G|---------8----------------------------------|
D|-----5-8---8-----5--------------------------|
A|---6---------6-8----------------------------|
E|-8-----------------6-8----------------------|
B|--------------------------------------------|

Refrão 4 Final tocar 2x ( Groove 01 )

Get up, stand up: stand up for your rights! 

Parte 1 

G|--------------------------------------------|
D|------5--------------5----------------------|
A|-1-3----6-5-6-5-3--3------1-----------------|
E|-----------------------3--------------------|
B|--------------------------------------------|

Parte 2

G|--------------------------------------------|
D|----5-------------------5--3----------------|
A|-3----6-5-6-5-3--3-3--3---------------------|
E|--------------------------------------------|
B|--------------------------------------------|

Parte 3

G|--------------------------------------------|
D|------5--------------5----------------------|
A|-1-3----6-5-6-5-3--3------1-----------------|
E|-----------------------3--------------------|
B|--------------------------------------------|

Parte 4

G|--------------------------------------------|
D|----5-------------------5--3----------------|
A|-3----6-5-6-5-3--3-3--3---------------------|
E|--------------------------------------------|
B|--------------------------------------------|
Composição: Bob Marley / Peter Tosh Colaboração e revisão:
  • Reginaldo Costa

0 comentários

mostrar mais comentários

Conseguiu tocar?

2 tocaram 1 ainda não

Grave um vídeo tocando Get Up Stand Up e mande pra gente!

00:00 / 00:00
outros vídeos desta música
repetir qualidade Automático
Outros vídeos desta música
00:00 / 00:00
Automático
Capítulos
  • Tocando a música
  • Dicas Iniciais e equipamentos
  • Tocando Introdução
  • Ensinando Introdução
  • Tocando Refrão
  • Ensinando Refrão
  • Tocando Primeira Parte
  • Ensinando Primeira Parte
  • Tocando Variação (Palm-muting)
  • Ensinando variação com Palm-muting
  • Encerramento
  • Créditos Finais
OK