Cifra Club

Black Friday Cifra Club

One Drop

Bob Marley

Tab de baixo: Principal
G|-----5---|-----5----|
D|-5-7-----|-5-7------|
A|---------|----------| (2X)
E|-------8-|-------10-|

G|----------------------|-----------5-----------|
D|---------5------------|---------5---5----55---|
A|------77------------7-|---55-88--------5------|
E|-5-88------5---5-88---|-5-------------------7-|
00:00 / 00:00
Outros vídeos desta música
Repetir
Outros vídeos desta música
Composição de Bob Marley
Colaboração e revisão:
  • Diego Bass
  • Dheckson Seara
11.487 exibições

0 comentários

Ver todos os comentários

Conseguiu tocar?

1 Tocaram 0 Ainda não

Grave um vídeo tocando One Drop e nos envie!

Entre para oCifra Club PRO

Tenha acesso a benefícios exclusivos no App e no Site

  • Chega de anúncios

  • Prioridade de compra em lançamentos

  • Mais recursos no app do Afinador

  • Atendimento Prioritário

  • Descontos nos produtos Cifra Club

  • Ajude a produzir mais conteúdo

00:00 / 00:00

Cifra Club Pro

Aproveite o Cifra Club com benefícios exclusivos e sem anúncios
Cifra Club Pro
Aproveite o Cifra Club com benefícios exclusivos e sem anúncios
OK